Guitar Chords » C »Los Charros » Pero no puedo (Tab)

Pero no puedo
Los Charros

Lyrics, Chords & Tabs for Guitar, Bass & Ukulele

  • Am
    Llegaste a mí
                         Dm
    En una etapa de mi vida
                 G
    Cuando el amor
                                C        E7
    Golpeo las puertas de mi herido corazón
    
    
    Yo que pensé
    Que todo había terminado para mi
    Con tu mirada y tu sonrisa
    Un mundo nuevo descubrí.
    
    
               Am
    Pero no puedo
              Dm
    Pero no puedo
    
  • 1|-----8--7--5-------------8--7--5-----
    2|--5-----------5--5----5----------5--5
    4|-------------------------------------
    5|-------------------------------------
    6|-------------------------------------
    
    1|-----8--7--5------------8--7--5-----
    2|--5----------6--6----6----------6--6
    3|------------------------------------
    4|------------------------------------
    5|------------------------------------
    6|------------------------------------
    
    1|-----10--8--7------------10--8--7----
    2|--6-----------8--8----8----------8--8
    3|-------------------------------------
    4|-------------------------------------
    5|-------------------------------------
    6|-------------------------------------
    
    
  • INTRO: CON EL TECLADO CON UN SONIDO COMO MUSIC BOX:
    
    Mi-DO-Si-La-Mi-Mi (x2)
    Mi-RE-DO-Si-Fa-Fa (x2)
    Sol-Sol-Sol-RE-DO-Si-Sol-Sol
    Sol-La-Si - RE+FA - DO+MI
    RE-DO!-SI-LA-MI-MI-MI
    DO!-SI-LA-MI-MI-MI
    RE!-DO!-SI-FA-FA
    FA-RE!-DO!-SI-FA-FA
    FA-RE!-DO!-SI-SOL-SOL
    SOL-RE!-DO!-SI-SOL-SOL
    SOL-LA-SI- RE+FA - DO!+MI
    DO!-SI-LA (RAPIDO DESPLAZANDO LOS DEDOS)
    
    ACLARACION: ESTO (!) SIGNIFIK Q VA MAS AGUDO QUE LAS MAYUSCULAS
    
    Eso es todo...
    Est find nuevo asado y cumbia eh! pq la union hace la fuerza jaja..
    
    *Fabricio Mejias*
     *Dj NEGRO 2008*
      *JUJUY - ARG*
       *--2008--*
  • +
    ¡Colabora con nosotros!
    Envíanos tu versión de esta canción

Pero no puedo Lyrics
Llegaste a mí
En una etapa de mi vida
Cuando el amor
Golpeo las puertas de mi herido corazón
Yo que pensé
Que todo había terminado para mi
Con tu mirada y tu sonrisa
Un mundo nuevo descubrí.
Pero no puedo
Pero no puedo
No ya no puedo
Vivir sin ti
Pero no puedo
Pero no puedo
No ya no puedo
Acercarme a ti
Esta canción esta dedicada para mi hija Alison.
También esta dedicada para todos los fan de Los Charros.
Cualquier consulta macerathy@yahoo.com.ar




[Pero no puedo acordes][Pero no puedo cifra]
© LaCuerda.net · legal notice · privacy · es · en · pt · contact us
DINAMICO