Guitar Chords » C »Charly García » Seminare (Tab)

Seminare
Charly García

Lyrics, Chords & Tabs for Guitar, Bass & Ukulele

  •          G5              D/F#              Em                 B7
    E--------3--------|--------0--------|-------0---------|--------2--------|
    B--------3--------|--------3--------|-------0---------|-- -----4--------|
    G--------0--------|--------2--------|-------0---------|--------2--------|
    D--------0--------|--------0--------|-------2---------|--------4--------|
    A--------2--------|--------0--------|-------2---------|--------2--------|
    E--------3--------|--------2--------|-------0---------|--------X--------|
    
             C     C7   Dsus4    D       Dsus2     Am  B*  C     Em/D  Em/C#
    E--------0--|--0--|--3---|---2---|----0----|---0-------0----|--0--|--0--|
    B--------1--|--0--|--3---|---3---|----3----|---1-------1----|--3--|--2--|
    G--------0--|--0--|--2---|---2---|----2----|---2-------0----|--0--|--0--|
    D--------2--|--2--|--0---|---0---|----0----|---2-------2----|--2--|--2--|
    A--------3--|--3--|--X---|---x---|----x----|---0--0--2-3----|--2--|--2--|
    E--------X--|--X--|--X---|---x---|----x----|---X-------X----|--0--|--0--|
    
    
    
    G        D/F#          Em
    Quiero ver, quiero entrar
    
  • G          D/F#           Em
    Quiero ver,    quiero entrar
          B7                  C
    nena nadie te va a hacer mal
                Dsus4/D7
    Excepto amarte.
    G        D/F#      Em
    Vas aqui,    vas allá
           B7              C
    pero nunca te encontrarás
             Dsus4/D7
    Al escaparte.
    
    
    Am                  G    C
        No hay fuerza alrede-dor
           D/C                 Em
    no hay pociones para el amor
         Em/D
    ¿Dónde estás?
    
  • +
    ¡Colabora con nosotros!
    Envíanos tu versión de esta canción

Seminare Lyrics
Quiero ver, quiero entrar
nena nadie te va a hacer mal
excepto amarte.
Vas aqui, vas allá
pero nunca te encontraras
al escaparte.
No hay fuerza alrede - dor
no hay pociones para el amor
donde estas?
donde voy?
Porque estamos en la calle
de la sen - sa - ción
muy lejos del sol
que quema de amor.
Te doy pan
quieres sal
nena nunca te voy a dar
lo que me pides.
Te doy Dios,
quieres más
es que nunca comprenderás
a un pobre pibe.
Esas motos que van a mil
nada más
nada más.
Si pudieras olvidar tu mente
frente a mí, se
que tu corazón
diría que sí.
En este tema va mucho de la mano derecha,
los arpegios los dejo a su gusto,
aunque tengo uno en particular...
si lo quieren, pidanlo.
Dudas, consultas, sugerencias, al mail (:
Ale.-




[Seminare acordes][Seminare cifra]
© LaCuerda.net · legal notice · privacy · es · en · pt · contact us
DINAMICO