Guitar Chords » C »Charly García » Pasajera en Trance (Tab)

Pasajera en Trance
Charly García

Lyrics, Chords & Tabs for Guitar, Bass & Ukulele

  • e|-----------------------------------------------------------------------
    b|-17-13-15---13-15--17-13-15--13-13-15-13--17-13-15--13-17-15-*12-10-8*
    g|---------14----------------14---------------------14-----------------
    esto va dos veces (lo que va *12-10-8* va mas rapido)
    
    2da parte
    e|---------------------------15-15-13-12-13-12-----15
    b|13-12-13-12-13-13-12--12-15-----------------13-12--
    
    e|---------------------------15-15|
    b|13-12-13-12-13-13-12--12-15-----|
    
    aqui arranca la letra
    
    (1)
    LAm           FA     SOL
    Ella esta por embarcar
               REm       FA          SOL
    quizás consiga un pasaje en la borda.
    LAm            FA   SOL
    
  • Dm7 F G Dm7 F G x3
    
    Dm7 F G Dsus4
    
    F            Am    G
    Ella esta por embarcar
              Dm7       F          G
    quizás consiga un pasaje en la borda.
    F            Am    G
    Ella esta por despegar
            Dsus4
    ella se va
    
    F          Am    G
    Ella viaja sin parar,
             Dm7        F           G
    el viejo truco de andar por las sombras.
    F          Am       G
    Ella baila sobre el mar,
            Dsus4
    
  • Fmaj7: xx3210
    Am7: x02010
    G: 320003
    Dm7: xx0211
    F: xx3211
    Dm7/C: x30211
    D: xx0323
    F6/9: xx3233
    
    Intro: (Fmaj7 Am7 Fmaj G) x2
           (Fmaj7-Am7-G-Dm7-F-G) Fmaj7-Am7-G Dm7/C Dm7 Dm7/C Dm7
    
    Esta intro con acordes acompaña a la melodía de los teclados...
    Escuchen bien los cambios.
    
    Verso:
    
    Fmaj7       Am7     G
    ella está por embarcar
               Dm7       F            G
    
  • LAm, FA, SOL, REm, FA, SOL...
    
    intro teclado(medio rapido)
    
    1ra parte
    e|-----------------------------------------------------------------------
    b|-17-13-15---13-15--17-13-15--13-13-15-13--17-13-15--13-17-15-*12-10-8*
    g|---------14----------------14---------------------14-----------------
    esto va dos veces (lo que va *12-10-8* va mas rapido)
    
    2da parte
    e|---------------------------15-15-13-12-13-12-----15
    b|13-12-13-12-13-13-12--12-15-----------------13-12--
    
    e|---------------------------15-15|
    b|13-12-13-12-13-13-12--12-15-----|
    
    aqui arranca la letra
    
    verso:
    
  • MI----12--10------10----12--10----------10----
    Si------13--10--13--------13--10--13--13--13--
    SOL-------------------------------------------
    RE--------------------------------------------
    LA--------------------------------------------
    MI--------------------------------------------
    
    Mi----12--10------12----10--------
    SI------13--10--13--------12--10--
    Sol-------------------------12----
    RE--------------------------------
    LA--------------------------------
    MI--------------------------------
    
    Mi-------12--10------10--12--15--15---13--12--13-12--
    SI---------13--10--13--------------------------------
    SOL--------------------------------------------------
    RE---------------------------------------------------
    LA---------------------------------------------------
    MI---------------------------------------------------
    
  • |---------------12----------------------12-------------------|
    |-------13--15------13--15------13--15------13--15------13---|
    |---14----------------------14----------------------14-------|
    |------------------------------------------------------------|
    |------------------------------------------------------------|
    |------------------------------------------------------------|
    
    
    |-----------12------------------12-------------------|
    |---15--13------13--15------13------15--12-----------|
    |-----------------------14------------------14--12---|
    |----------------------------------------------------|
    |----------------------------------------------------|
    |----------------------------------------------------|
    
    
    |---------------12----------------------12-------------------|
    |-------13--15------13--15------13--15------13--15------13---|
    |---14----------------------14----------------------14-------|
    |------------------------------------------------------------|
    
  • bueno, este es mi primer tab q publico
    cualquier correccion pueden enviarmela al mail
    ale_yaciuk@hotmail.com
    
    
    Este tab es de la version en vivo cuando presentan el disco Tango
    por lo q puede haber ciertas variaciones a la version en estudio
    
    Intro (0:09)
    
    G 9--7----7--9--7------7--9--7----7-9-7--------
    D -10-7-10----10-7-1010-10-10-7-10-----10-7-5-7 X2
    A ---------------------------------------------
    E ---------------------------------------------
    
    (0:29)
    G ----------------------1212-9-7-9-7----12------------------------1212
    D 10-9-10-9-1010-9-----9------------10-7----10-9-10-9-1010-9-----9----
    A ----------------10-10-------------------------------------10-10-----
    E --------------------------------------------------------------------
    
    Verso (0:49)
    Ella esta por embarcar
    G ------------------------------------5-7-5---
    D ----33-3/5-5-7-8-5-7-8----33-3/5-5-7-----7-5  X4
    A 5-57------------------5-57------------------
    E --------------------------------------------
    
    Verso 2 (1:28)
    Pasajera en
  • Armonica en do
    Intro:
    5 4 (4) 4 5 (4)
    5 4 (4) 4 5 5 5 
    5 4 (4) 4 5 (4)
    5 4 (4) 4 4 
    5 4 (4) 4 5 (4)
    5 4 (4) 4 5 5 6 6 
    
    4 4 4 4 4 (3)
    (3)(3)6 (5)5(5)5(5)5 6 
    4 4 4 4 4 (3)
    (3)(3) 6 6 
    
    4 4  4    4    4  (3)
    Ella esta por embarcar
    (3)(3) 6 6   (5) 5 (5)  5 (5)  5  6
    Quizaz consiga un pasaje en la borda
    Ella esta por despegar
    (3)(3) 6 6  (6)b
    Ella se va....
    
    Ella viaja sin parar
    El viejo truco de andar por la sombra
    Ella baila sobre el mar
    Ella se va.....
    
    (3)(3)4 (4) 4  4
    Pasajera en trance
    4 4 (4) 5 (5) 5 (4) 4 (5) 4
    Pasajera en transito perpetuo
    Pasajera en trance
    Transitando los lugares ciertos
    
    (3)(3)4 (4)4
    Un amor real
    4 4 (4) 5 (5) 5 (4) 4 (5) 4
    Es como dormir y estar despierto
    Un amor real
    Es como vivir en aeropuerto....
    
    Repite la intro...
  • Este tema ya existe entre sus archivos, incluso para 
    teclados, pero ninguno esta totalmente correcto ni 
    tan detallado como el que se encuentra a continuación. Sino pruébenlo.
    
    
    Los acordes del tema (mano izquierda) están entre la 
    letra y las notas (mano de derecha) de la melodía por
     debajo. La melodía está en cifrado americano para 
    mayor rapidez en la escritura.
    
    A	B	C	D	E	F	G	
    La	Si	Do	Re	Mi	Fa	Sol	
    
    Intro
    e - c - d - a -c- d, e - c - d - a -c- d - d -c, e - c
     - d - a - c - e, d,  b - a - g. e - c - d - a -c- d,
     e - c - d - a -c- d, e - c - d -
     a - c - e, d,  b - a - g. 
    c - b - c - b - c - c - b ,  b - d - g - g - f - e - 
    f - e - c - b - g ,  c - b - c - b - c - c - b ,  b - 
    d - g - g 
    
    Estrofa
    
    E(Lam)lla está por em(Fa)bar(Sol)car, 
    Do-si-do-si-do-do-si
    quizás con(Rem)siga un pa(Fa)saje en la bor(Sol)da. 
    si-re-sol-sol-fa-mi-fa-mo-do-si-sol
    E(Lam)lla está por des(Fa)pegar(Sol), 
    do-si-do-si-do-do-si
    ella se va(Rem, Fa, Sol). 
    si-re-s
  • +
    ¡Colabora con nosotros!
    Envíanos tu versión de esta canción
  • Tutorial
    HD
    Explicado - Como tocar "Pasajera en trance" de Charly Garcia en el bajo tutorial#178
    12:39

Pasajera en Trance Lyrics
esto va dos veces (lo que va *12-10-8* va mas rapido)
2da parte
aqui arranca la letra
(1)
Ella esta por embarcar
quizás consiga un pasaje en la borda.
Ella esta por despegar
ella se vaaa...
(2)
Ella viaja sin parar,
el viejo truco de andar por las sombras.
Ella baila sobre el mar, ella se va.
Pasajera en trance,
pasajera en tránsito perpetuo.
Pasajera en trance,
transitando los lugares ciertos.
Un amor real
es como dormir y estar despierto.
Un amor real
es como vivir en aeropuertos.
Fin: Se repite el intro




[Pasajera en Trance acordes][Pasajera en Trance cifra]
© LaCuerda.net · legal notice · privacy · es · en · pt · contact us
DINAMICO