Guitar Chords » C »Charly García » Raros peinados nuevos (Tab)

Raros peinados nuevos
Charly García

Lyrics, Chords & Tabs for Guitar, Bass & Ukulele

  •          Gm                 C
    |--------------------------------------------------|
    |--------------------------------------------------|
    |---------------------3v---------------------------|  x4
    |--------------3-----------5v----------------------|
    |---------3s5-----5--------------------------------|
    |--------------------------------------------------|
    
    
    INTRO Gm-C (x3)
    
          Gm
    Y si vas a la derecha
           C                         Gm   C
    y cambiás hacia la izquierda, adelante.
          Gm
    Es mejor que estarse quieto
          C                 Gm   C
    es mejor que ser un vigilante
    
    
  • INTRO Gm-C (x3)
    
          Gm
    Y si vas a la derecha
           C                         Gm   C
    y cambiás hacia la izquierda, adelante.
          Gm
    Es mejor que estarse quieto
          C                 Gm   C
    es mejor que ser un vigilante
    
    
           A#                       F
    Si me gustan las canciones de amor
          C                    Cm
    y me gustan esos raros peinados nuevos
             Gm
    ya no quiero criticar
            F                Gm  C
    sólo quiero ver al enfermero.
    
  • Intro: Gm - Csus4
    
         Gm
    Y si vas a la derecha
          Csus4                        Gm
    Y cambias hacia la izquierda ¡adelante!
          Gm
    Es mejor que estarse quieto
         Csus4                Gm
    Es mejor que ser un vigilante
          Bb                      F
    Si me gustan las canciones de amor
         C                      Cm
    y me gustan esos raros peinados nuevos
          Gm
    Ya no quiero criticar
           F                 Gm       Csus4
    Solo quiero ser un enfermero
    
    Oh Oh Oh Oh Oh
    
  •     G5                      C5
    Y si vas a la derecha y cambias hacia la izquierda,
          G5  Riff2
    ¡adelante!
          Gm                          C5
    Es mejor que estarse quieto es mejor que ser un 
         Gm  Riff2
    vigilante.
           Bb                     F          C
    Si me gustan las canciones de amor y me gustan esos 
             Cm                 Gm
    raros peinados nuevos ya no quiero criticar solo 
     F                  Gm    
    quiero ser un enfermero.
    Oh oh oh oh oh
    
    Riff1
    
    Y si trabajas al pedo y estas haciendo algo nuevo ¡adelante! 
    y si cantas a la luna y perdes la vida en un instante.
    
  • Intro x1
    |----------------|----------------|----------------|----------------|
    |----------------|----------------|----------------|----------------|
    |----------------|3-----3-3-------|----------------|3-----3-3-------|
    |3-----3-3-------|----------------|3-----3-3-------|----------------|
    
    |----------------|----------------|----------------|----------------|
    |----------------|----------------|----------------|----------------|
    |----------------|3-----3-3-------|----------------|3-----3-3-------|
    |3-----3-3-------|----------------|3-----3-3-------|----------------|
    
    Verso x1
    |----------------|----------------|----------------|----------------|
    |----------------|----------------|----------------|----------------|
    |----------------|3-----3-3-------|----------------|3-----3-3-------|
    |3-----3-3-------|----------------|3-----3-3-------|----------------|
    
    |----------------|----------------|----------------|----------------|
    |----------------|----------------|----------------
  • +
    ¡Colabora con nosotros!
    Envíanos tu versión de esta canción

Raros peinados nuevos Lyrics
Y si vas a la derecha
Y cambias hacia la izquierda ¡adelante!
Es mejor que estarse quieto
Es mejor que ser un vigilante
Si me gustan las canciones de amor
y me gustan esos raros peinados nuevos
Ya no quiero criticar
Oh Oh Oh Oh Oh
y si trabajas al pedo
y estas haciendo algo nuevo ¡adelante!
y si cantas a la luna
y perdes la vida en un instante
Si luchaste por un mundo mejor
y te gustan esos raros peinados nuevos
no quiero ver al doctor
Dame un poquito de amor
No quiero un toco
Quiero algo de razon
A7/b13
No quiero un loco
Apaga el televisor
Si lo que te gusta es gritar
desenchufa el cable del parlante
el silencio tiene accion
el mas cuerdo es el mas delirante
me gustaban las canciones de amor
me gustaban esos raros peinados nuevos
de chiquito fui aviador
pero ahora soy un enfermero...
Como La Intro De Nuevo.
Es facil
Aguante SKA-P
Acordes: De la cuerda 1 a la 6 (de e a E).
Bbm6/Db: 3 - 4 - 3 - 3 - 6 - 3
A7/b13: x - 0 - 5 - 5 - 6 - x




[Raros peinados nuevos acordes][Raros peinados nuevos cifra]
© LaCuerda.net · legal notice · privacy · es · en · pt · contact us
DINAMICO