Guitar Chords » C »Charly García » chipi chipi (Tab)

chipi chipi
Charly García

Lyrics, Chords & Tabs for Guitar, Bass & Ukulele

  • [G  Em  Am  D]
    
     
        G
    Yo nunca vi New York
        Em
    no se lo que es París
       Am
    vivo bajo la tierra,
       D
    vivo dentro de mi.
       G
    Yo no tengo un espejo
      Em 
    no tengo un suvenir
        Am
    la lágrima me habla
       D
    está dentro de mi.
    
    
  • Intro:
    E||--------------------------------------------|
    B||--------------13-13-13-12-------------------|
    G||---------12--------------14-14-12-11-11h12--|
    D||-12-12h14-----------------------------------|
    A||--------------------------------------------|
    E||--------------------------------------------|
    
    
    Arreglo sobre G (Despues de “y este soubenir” -0:45min.-)
    E||---------------------------|
    B||---------------------------|
    G||-------12------------------|
    D||-12H14----14-12------------|
    A||---------------14-12-------|
    E||--------------------15/----|
    
    
    Arreglo sobre G (Después de “donde nunca fuí” -1:19min.-)
    E||-------------------12-15--
    B||-------------13-15--------
    G||-------12-14--------------
    D||-12H14--------------------
    A||--------------------------
    E||--------------------------
    
    
    Punteo (1:38min.):
    E||-------------------------------------------
    B||-------------------------------------------
    G||------12----12----12-12-12---12-1
  • Intro: G-Em-Am-D
    
    (acompaña al teclado)
        Sol      Mim      Lam     Re
    G¦-------¦--------¦-------¦-------¦
    D¦---5---¦--------¦---7---¦-------¦
    A¦-------¦---7----¦-------¦---5---¦
    E¦-------¦--------¦-------¦-------¦
    
    Parte A ( yo solo tengo..)
    
         Dm       G7        C        Cm
    G¦--------¦--------¦---------¦-------¦
    D¦--------¦--------¦---------¦-------¦
    A¦-5--5-5-¦--------¦-3--3-3--¦-3--3-3¦
    E¦--------¦-3--3-3-¦---------¦-------¦
    
        G       D/F#   C     D   G
    G¦----------------------------------
    D¦----------------------------------
    A¦-10---10-9---9-3---3-5---5--------
    E¦---------------------------3------
    
       Corte
    G¦-----------------------------------
    D¦-----------------------------------
    A¦--10-------------------------------
    E¦------11h-12--10—-6h7-5--3---------
    
    
    Parte B ( yo subo la escalera..)
    
        Sol        Mim      Lam         Re
    G¦-----------¦------¦-------------¦-------¦
    D¦-5-5---5-4-¦-2-2--¦-------------¦-------
  • +
    ¡Colabora con nosotros!
    Envíanos tu versión de esta canción

chipi chipi Lyrics
Yo nunca vi New York
no se lo que es París
vivo bajo la tierra,
vivo dentro de mi.
Yo no tengo un espejo
no tengo un suvenir
la lágrima me habla
está dentro de mi.
Yo solo tengo esta pobre antena,
que me transmite lo que decís,
esta canción, mi ilusión, mis penas
y este souvenir.
Yo subo la escalera. Uh!
yo cumplo una misión
la lágrima me dice
que yo tampoco soy.
La hija de un amor,
la hija del dolor,
yo soy,
quien no debe ser.
.....................(no canta)
no digas nada vete de aquí
porque yo voy donde nunca estoy,
donde nunca fui.
Tómalo con calma,
la cosa es así,
ya se hace de noche,
me tengo que ir.
Chipi, chipi
chipi, chipi
bom bom
bom bom
bom bom
Chipi, chipi
Yo no te pienso esperar por siempre
porque el mercurio lo tengo aquí
no digas malas palabras, nene
ya vete de aquí.
Esta canción durará por siempre,
por eso mismo yo la hice así
una canción sin amor, sin dolor
la canción sin fin.




[chipi chipi acordes][chipi chipi cifra]
© LaCuerda.net · legal notice · privacy · es · en · pt · contact us
DINAMICO