Guitar Chords » C »Los Chalchaleros » La Lopez Pereyra (Tab)

La Lopez Pereyra
Los Chalchaleros

Lyrics, Chords & Tabs for Guitar, Bass & Ukulele

  • C - G - G - C - C - G - F - G - C - G - C
    
    C
    Yo quisiera olvidarte, Me es imposible,
                G
    Mi bien, mi bien,
    
    Tu imagen me persigue, Tuya es mi vida,
               C
    Mi amor también.
    
       E
    Y cuando pensativo
              Am
    Yo solo estoy,
    F                 C
    Deliro con la falsía
                 G
    Con que ha pagado
                 C    C7
    
  •                              G                 G  F  C  G7 C
    1|----3-3--12-12-12r10--8h10p8-7---7-7h8p7—5h6p5--7--5--3--1---0-
    2|---5-----13-13-13r12-10------8--7-7-----5-------6--6--7--3---1-
    3|--5------------------------------------------------------------
    4|---------------------------------------------------------------
    5|-3-------------------------------------------------------------
                                  G             F     Am7 G7    C      G   C
    1|----3---12-12-12r10--8h10p8-7--7-7h8p7—------------------------------3-
    2|---5----13-13-13r12-10------8--7-7----------------------3------------5-
    3|--5----------------------------------------5-----5-----4-------------5-
    4|------------------------------------------7-----6-----5----0---------5-
    5|-3-------------------------------------3s8---8-7---7-5----3-3-2-0----3-
    6|------------------------------------------------------------------3--3-
    
    C                                                 G
    Yo quisiera olvidarte me es imposible mi bien, mi bien
    G7              G                                C
    Tu imagen me persigue tuya es mi vida mi amor también
    E                            Am  (bajar)
    Y cuando pensativo yo solo estoy
    
  • +
    ¡Colabora con nosotros!
    Envíanos tu versión de esta canción

La Lopez Pereyra Lyrics
Yo quisiera olvidarte, Me es imposible,
Mi bien, mi bien,
Tu imagen me persigue, Tuya es mi vida,
Mi amor también.
Y cuando pensativo
Yo solo estoy,
Deliro con la falsía
Con que ha pagado
Tu amor, mi amor.
Deliro con la falsía
Con que ha pagado
Tu amor, mi amor.
Si yo pudiera tenerte
A mi lado todo el día,
De mis ocultos amores,
Paloma, te contaría.
Pero, es inútil mi anhelo,
Jamás, jamás.
Vivo sólo para amarte,
Callado y triste:
Llorar, llorar.
Vivo sólo para amarte,
Callado y triste:
Llorar, llorar.
(Se repiten los Acordes)
Me han dicho
Que no me quieres;
Pero eso no es un motivo.
Me privas de tus mirada,
Mi alma; sin ella no vivo.
Voy a esconderme
A una selva sólo a llorar.
Pueda ser que,
En mi destierro,
Tus ojos negros pueda olvidar.
Un día, de mañanita,
Al cielo azul miré, miré.
Contemplando a las estrellas,
A la más bella le pregunté
Si era ella la que alumbraba
Para pedir por ella,
Al dios piadoso, resignación.
cualquier duda: jos_rm@live.com
saludos desde Tarija - Bolivia




[La Lopez Pereyra acordes][La Lopez Pereyra cifra]
© LaCuerda.net · legal notice · privacy · es · en · pt · contact us
DINAMICO