Guitar Chords » C »Chabuca Granda » El Surco (Tab)

El Surco
Chabuca Granda

Lyrics, Chords & Tabs for Guitar, Bass & Ukulele

  • E             A            B
    Dentro de un surco abierto vi germinar
    un lucero de infinita soledad
    C#m          B                A     G#m
    y con una canasta debí regar
    F#m                  B         E
    con agua de un arroyo de oscuridad.
    
    En una hora triste quise cantar
    y dentro de mi canto quise gritar
    y dentro de mi grito quise llorar,
    pero tan sólo canto para callar. B G7#
    
    C#m           B                F#m     G#7
    A malhaya la siembra se echó a perder
    C#m           B                F#m     G#7
    el agua del arroyo se echó a correr
    C#m          B             A    G#m
    al lucero le gusta la libertad
    F#m             B           E     B G#7
    
  •      E    F    A         Bb              C
    E||-----------------|-----------------|-------------------|
    B||-----------------|--------3--------|------1------------|
    G||-----------------|--------3--------|------0------------|
    D||-----------------|------3----------|----2--------------|
    A||------------0----|----1------------|--3----------------|
    E||--0h1--1---------|-----------------|-------------------|
    
         E    F    A        Bb              A
    E||-----------------|-----------------|-------------------|
    B||-----------------|--------3--------|------2------------|
    G||-----------------|--------3--------|------2------------|
    D||-----------------|------3----------|----2--------------|
    A||------------0----|----1------------|--0----------------|
    E||--0h1--1---------|-----------------|-------------------|
    
         E Dm                Edim7             A
    E||--------1---------|-----3-----------|-------------------|
    B||--------3---------|-----2-----------|----2--------------|
    G||------2-----------|-----3-----------|----2--------------|
    
  • +
    ¡Colabora con nosotros!
    Envíanos tu versión de esta canción

El Surco Lyrics
Dentro de un surco abierto vi germinar
un lucero de infinita soledad
y con una canasta debí regar
con agua de un arroyo de oscuridad.
En una hora triste quise cantar
y dentro de mi canto quise gritar
y dentro de mi grito quise llorar,
pero tan sólo canto para callar. B G7#
A malhaya la siembra se echó a perder
el agua del arroyo se echó a correr
al lucero le gusta la libertad
y al agua del arroyo la claridad.
No dio fruto el lucero se fue a alumbrar
y el agua del arroyo le fue a cuidar.
A malhaya la hora en que fui a cantar,
a malhaya la hora en que fui a gritar,
si gritando se llora para callar
y mi vaso sediento no llega al mar.
A malhaya la hora en que fui a cantar,
a malhaya la hora en que fui a gritar.




[El Surco acordes][El Surco cifra]
© LaCuerda.net · legal notice · privacy · es · en · pt · contact us
DINAMICO