Guitar Chords » C »César Franco » Mi corazón encantado (Tab)

Mi corazón encantado
César Franco

Lyrics, Chords & Tabs for Guitar, Bass & Ukulele

  • C                 G
     Tu sonrisa tan resplandeciente
     Am              Em     E7
     A mi corazón deja encantado
     F           C Am
     Ven toma mi mano
        A#               G            G#-A#-C
     Para huir de esta terrible oscuridad.
    
    
     Fm                    A#            Gm
     En el instante en que te volví a encontrar
                      Cm                Fm
     Mi mente trajo a mí aquel hermoso lugar
                    G7             Cm         C7
     Que cuando era niño fue tan valioso para mi.
    
              G#                 A#              Gm
     Quiero saber si acaso tú conmigo quieres bailar
                  Cm           Fm
    
  •  A                 E
     Tu sonrisa tan resplandeciente
     F#m              C#m
     A mi corazón deja encantado
     D           A F#m
     Ven toma mi mano
        G               E            F-G-A
     Para huir de esta terrible oscuridad.
    
    
     Dm                    G            Em
     En el instante en que te volví a encontrar
                      Am                Dm
     Mi mente trajo a mí aquel hermoso lugar
                    E7             Am         C
     Que cuando era niño fue tan valioso para mi.
    
              F                 G              Em
     Quiero saber si acaso tú conmigo quieres bailar
                  Am           Dm
    
  • E|-------------5---------|---------------------|
    B|-5/8-8-5-6-8---8-6-5---|-5-5-----5-6-5-------|
    G|---------------------7-|-----5-7-------7-5-4-|
    D|-----------------------|---------------------|
    A|-----------------------|---------------------|
    E|-----------------------|---------------------|
    
    E|-----5--------------------------|
    B|-------8-8-----5-6-5------------|
    G|---5-------5-7-------7-5-7--5-4-|
    D|-7------------------------------|
    A|--------------------------------|
    E|--------------------------------|
    
    E|------------------------------|----------------|
    B|------------------------------|--1-0-----------|
    G|--1-0----------3-1-0---0------|------2-0-------|
    D|------3-1--0-1-------3---3-2--|----------3-2-0-|
    A|------------------------------|----------------|
    E|------------------------------|----------------|
    
  • E ---3-3-----3-5-3---------------------------------
    B -------5-6-------6-5-3----5-5-----5-6-5----------
    G ------------------------------5-7-------7-5-4-2--
    D -------------------------------------------------
    A -------------------------------------------------
    E -------------------------------------------------
    
    E --------5-3---------------------------
    B --------------3-5-6-5-3---3----1-0-1--
    G --2-2-5-----5-----------5-------------
    D --------------------------------------
    A --------------------------------------
    E --------------------------------------
    
    Esta parte va justo después del intro:
    
    E ----------------------------------
    B ----------------------------------
    G ----------------------------------
    D -----6-5-3---------8-6-5----------
    
  • +
    ¡Colabora con nosotros!
    Envíanos tu versión de esta canción

Mi corazón encantado Lyrics
Tu sonrisa tan resplandeciente
A mi corazón deja encantado
Ven toma mi mano
Para huir de esta terrible oscuridad.
En el instante en que te volví a encontrar
Mi mente trajo a mí aquel hermoso lugar
Que cuando era niño fue tan valioso para mi.
Quiero saber si acaso tú conmigo quieres bailar
Si me das tu mano te llevare
Por un camino cubierto de luz y oscuridad,
Tal vez sigues pensando en el no puedo yo saberlo
Pero sé que entiendo que amor necesitas tu
Y el valor para pelear, en mi lo hallaras.
Mi corazón encantado vibra
Por el polvo de esperanza y magia
Del universo al que ambicionan todos poseer.
Voy a amarte para toda la vida
No me importa si aun no te intereso
Ven toma mi mano para huir de esta infinita oscuridad.
Sin importar qué pase yo te amaré
Y quiero que por siempre a mi lado estés
No vale la pena seguir pensando en el ayer
Quiero saber, si acaso sigues tú soñando con él
En un mar de dudas me perderé
Y ya no encuentro el camino que me lleve hasta a ti
Cuando al fin me logré decidir
A confesar las cosas que siento por ti
No sé qué me lo impidió
Pero hoy voy a pelear con todo mi amor
Mi corazón encantado vibra
Por el polvo de esperanza y magia
Te voy a demostrar que el amor que siento es real
Voy a amarte para toda la vida
Qué más da, ven ya no tengas miedo
Ven toma mi mano Y busquemos juntos la felicidad...
By. BranDoors
seigueme en Facebook como: Bran Doors ó en Twitter




[Mi corazón encantado acordes][Mi corazón encantado cifra]
© LaCuerda.net · legal notice · privacy · es · en · pt · contact us
DINAMICO