Guitar Chords » C »Carlos Gardel » Por una cabeza (Tab)

Por una cabeza
Carlos Gardel

Lyrics, Chords & Tabs for Guitar, Bass & Ukulele

  • LA   MI7       LA   MI7            LA7
         Por una cabeza de un noble potrillo
                     LA/DO#  DOº          SIm
    que, justo en la raya,  afloja al llegar
    FA#7         SIm          MI7
    y que al regresar parece decir:
                  SIm7
    no olvidé hermano,
          MI7               LA
    vos sabes, no hay que jugar.
    MI7       LA    MI7            LA
    Por una cabeza, metejon de un dia
                 MIm7       LA7     RE
    de aquella coqueta y burlona mujer,
                     REm
    que al jurar sonriendo
                        LA
    el amor que esta mintiendo,
                   SI7   MI7        LA    MI7
    quema en una hoguera todo mi querer
    
  •         A
    Por una cabeza
    B#º           A/C#
    de un noble potrillo
                    A/C#
    que justo en la raya
     Am/C        E7/B
    afloja al llegar,
                  E7/D
    y que al regresar
    D#m7(5d)   E7
    parece   decir:
    
    No olvidés, hermano,
          E7(#5)            A
    vos sabés, no hay que jugar.
              A
    Por una cabeza,
    B#º           A/C#
    metejón de un día
    
  •           G7 
    Por una cabeza
    Am7           G7M/B
    de un noble potrillo
    Am7      D7     G7 
    que justo en la raya
       G#dim       Am   -
    afloja al llegar,
    E7             Am ,
    y que al regresar
    Am     Eb7/9  D7
    parece decir:
                   Am7
    No olvidés, hermano,
        D7                  G7    Eb7/9  D7(9)
    vos sabés, no hay que jugar.
    D#7(9)     G7 
    Por una cabeza,
    Am7         G7M/B
    metejón de un día
    
  •            G
    Por una cabeza de un noble potrillo
                                      Am
    que justo en la raya afloja al llegar
    E7             Am           D7
    y que al regresar parece decir:
                   Am           D7                G
    No olvides, hermano, vos sabés, no hay que jugar...
               G
    Por una cabeza, metejón de un día,
                  G7                C
    de aquella coqueta y risueña mujer
                      Am7                         G
    que al jurar sonriendo, el amor que esta mintiendo
                     D7              G      Gm
    quema en una hoguera todo mi querer.
    
    Gm         Dm
    Por una cabeza
    Cm           Bb
    
  • POR UNA CABEZA (Arreglo de Luis María Soria)
    
    e|---------|-------------|-----4h4h4-5-----|---------------|---------
    B|---------|-2-------2-4-|-7-5---------7-9-|-5h7---4h5-4-2-|---------
    G|-1-2-3-4-|---4-3-4-----|---6-------------|---------4-3---|-2-------
    D|---------|-------------|---6-----2-------|---------------|-----4-3-
    A|---------|-----5-------|-------------5---|-4-------------|---4-----
    E|-0-------|-4---3---2---|-0---------------|-----6---4-3---|-2-------
    
    e|-5-4-7-5-|-2-------2-1-4-2-|-----------0-1-2-|-4-2-------------|
    B|-2-------|-----2-----------|-4-------4-------|-4---4-2---4-----|
    G|-2---6---|---2---1---------|-----4-3-2-------|---------4---4-2-|
    D|-2---4---|-----------------|---4-------------|-----------------|
    A|---------|-0-------1-------|-2---------------|-2-------0-------|
    E|---------|-----------------|-----------------|-------------3---|
    
    e|-----------------|-------------|---------------|-----2h4-2h4h2-0-|
    B|-----------------|-2-------2-4-|-7-5-5-7h7h9-5-|-7h5---3--
  • e||-----------|--2-0----------2--4-|--7--5----9---10-----9-|
    B||-2---3-4-5-|---------4---5-1----|-----------------12----|
    G||-----------|--------------------|--5--5-----------------|
    D||-----------|--------------------|-----------------------|
    A||-0---------|--0-3----2---3------|--0--0-----------------|
    E||-----------|--------------------|-----------------------|
    
      raya a flojaal lle  gar    quealjurarson riendo el amorqueestámin
    --7-5--4-5--4----5-|--2------7----5------|---------------5----3---|
    -------------------|--3-------------7--3-|-2---0--2--36---------6-|
    -------------------|--2------------------|------------------------|
    -------------------|--0------0---------0-|-0---------00--0------0-|
    --0------0--0----0-|-------0-------------|------------------------|
    -------------------|---------------------|------------------------|
    
    tiendo     quemaenuna hoguera todomique
    -5---0---5-5--7-8--5-|--7-----4-5-7-4-|
    ---------------------|-----7----------|
    ---------------------|----------------|
    ---------------------|--0--0--0-------|
    
  • +4  -4 -4 +5 -5 +5 -4    +5 -5  +6 -7 -6
    Por u~~na ca~be~za de un no~ble po~trillo
    
    +7  -8 -7    +7 -6 -7 +6 -6 +6    +5 -4
    Que justo en la ra~ya a~~floja al llegar,
    
    -8 +7     +8 -8 -7  -7 -6 +7 -7 +6
    Y~ que al re~gresar pa~re~ce de~cir:
    
    +6   -6 -6    -7 +7 -7  +6  -5 +5   +6     +5  -4 +4
    No olvi~déis, herma~no, vos sa~bés, no hay que ju~gar.
    
    
    +4  -4 -4 +5 -5 +5  -4 +5 -5  +6    -7 -6
    Por u~~na ca~be~za, me~te~jón de un dí~a~
    
    -6  -7 +7  -6 -7 -6   -7 +7 -7 -6 -5
    De aquella co~queta y burlo~na mu~jer,
    
    -7     -6 -5  -4 +4  -3 +4 -4 -5  -6    +6 -5 -6  +5
    Que al ju~rar sonriendo el a~~mor que está mintiendo
    
    -6 -7    +7 -6   -7 -5 +6 -6 -7 +6 -6
    Quema en u~~na hoguera to~do mi querer.
    
    
    +7  +7 -8 +8 +8 -7  -6 -6  -7  +7 +7 +6
    Por u~~na ca~be~za, to~das las lo~cu~ras.
    
    -5 -5 +6 -6  -6 +5  -6 -7 +7 -6  -7 -5
    Su bo~ca que be~sa, borra la triste~za,
    
    -6 -7 +7  -6 +7 +7  +7  +7 -8 +8 +8 -7
    Calma la amargu~ra. Por u~~na ca~be~za,
    
    -6 -6 -7  +7   +7 +6 -5    -5 +6 -6 -6 +5
    Si e~~lla m
  • +
    ¡Colabora con nosotros!
    Envíanos tu versión de esta canción

Por una cabeza Lyrics
Por una cabeza de un noble potrillo
que, justo en la raya, afloja al llegar
y que al regresar parece decir:
no olvidé hermano,
vos sabes, no hay que jugar.
Por una cabeza, metejon de un dia
de aquella coqueta y burlona mujer,
que al jurar sonriendo
el amor que esta mintiendo,
quema en una hoguera todo mi querer
Por una cabeza
todas las locuras
su boca que besa
borra la tristeza,
calma la amargu - ra.
Por una cabeza,
si ella me olvida,
que importa perderme
mil veces la vida,
para que vivir.
Cuantos desengaños, por una cabeza.
Yo jure mil veces, no vuelvo a insistir.
Pero si un mirar me hiere al pasar,
su boca de fuego, otra vez, quiero besar.
Basta de carreras, se acabo la timba;
un final reñido ya no vuelvo a ver
pero si algun pingo
llega a ser fija el domingo,
yo me juego entero, ¡que le voy a hacer!
Por una cabeza...




[Por una cabeza acordes][Por una cabeza cifra]
© LaCuerda.net · legal notice · privacy · es · en · pt · contact us
DINAMICO