Guitar Chords » C »Los Cantores del Alba » Mantelito Blanco (Tab)

Mantelito Blanco
Los Cantores del Alba

Lyrics, Chords & Tabs for Guitar, Bass & Ukulele

  • D
    Mantelito blanco de la humilde mesa
                                 A7
    En que compartimos el pan familiar
    Mantelito blanco hecho por mi madre
                                   D
    En horas de invierno de nunca acabar
    
    D
    Tiene tus dibujos figuras pequeñas
                         D7      G
    Avecitas locas que quieren volar
                                      D
    Las bordo mi madre en horas de invierno
                    A7                D
    Que junto a mi cuna me enseño a rezar,
    
    
    (Se repiten los mismos acordes)
    
    
  • Ref.:
    s: SLIDE (arrastre)
    r: HAMMER (martillo)
    p: PULL OFF (tirón)
    
    LOS CANTORES DEL ALBA - MANTELITO BLANCO
    
    Intro:
    1---8---8--7---7--5----|
    2---5-5----5-5----5-5--|
    3---5------5------5-5--|
    4---5------5------7----|
    5----------------------|
    6----------------------|
    
    1-----------------------------------------------|
    2-----------------------------------------------|
    3------------------0----------------------------|
    4----------0-1-s-2-2----2-0-r-2-p-0-------2-s-5-|
    5----0-2-3--------------------------2-s-3-------|
    6--3--------------------------------------------|
    
    1--3-3-3-3-------------|
    2----------6-3---------|
    3--------------5-4-----|
    4----------------------|
    5----------------------|
    6----------------------|
    
    1----8-p-10-p-8-----7-p-8-p-7----------------------|
    2--8--------------8----------------10-------8------|
    3-------------------------------10----------10-----|
    4-------------------------------------10-9--9------|
    5--------------------------------------------------|
    6-------------
  • +
    ¡Colabora con nosotros!
    Envíanos tu versión de esta canción

Mantelito Blanco Lyrics
Mantelito blanco de la humilde mesa
En que compartimos el pan familiar
Mantelito blanco hecho por mi madre
En horas de invierno de nunca acabar
Tiene tus dibujos figuras pequeñas
Avecitas locas que quieren volar
Las bordo mi madre en horas de invierno
Que junto a mi cuna me enseño a rezar,
(Se repiten los mismos acordes)
Mantelito blanco de la humilde mesa
En que compartimos el pan familiar
Mantelito blanco hecho por mi madre
En horas de invierno de nunca acabar
Hay dos letras grandes en el mantelito,
letras veneradas que he de recordar,
son las iniciales de mis dos viejitos,
ausentes por siempre, por siempre jamás.




[Mantelito Blanco acordes][Mantelito Blanco cifra]
© LaCuerda.net · legal notice · privacy · es · en · pt · contact us
DINAMICO