Guitar Chords » C »Callejeros » Creo (Tab)

Creo
Callejeros

Lyrics, Chords & Tabs for Guitar, Bass & Ukulele

  •  G                     D
    Creo que con una canción
                         A
    la tristeza es más hermosa.
    G                   D
    Creo que con una palabra
                      A
    puedo decir mil cosas.
             Bm
    Pero no creo en el circo
             FA#m
    de la información.
    G                   D
    Todo decanta en tu amor
                A
    y en mi dolor.
    
    Creo que es mejor morir de pie
    que vivir de rodillas.
    Creo que el viento me alcanzó
    
  • e||---0----5----10----14----
    B||---5----5----10----10----
    G||---7----7----11----11----
    D||---7----7----12----12----
    A||-------------------------
    E||-------------------------
    
    e||---0----7----0----7-----
    B||---5----5----5----5-----
    G||---6----6----6----6-----
    D||---7----7----7----7-----
    A||------------------------
    E||------------------------
    
    
    
    G                     D
    Creo que con una canción
    
                           A
    
  • e||---0----5----10----14----
    B||---5----5----10----10----
    G||---7----7----11----11----
    D||---7----7----12----12----
    A||-------------------------
    E||-------------------------
    
    e||---0----7----0----7-----
    B||---5----5----5----5-----
    G||---6----6----6----6-----
    D||---7----7----7----7-----
    A||------------------------
    E||------------------------
    
    e||---------------------------------------
    B||---------------------------------------
    G||---/7-9-11-7v---7-9-11-9-6-2---2-6-----
    D||-----------------------------2---------
    A||---------------------------------------
    E||---------------------------------------
    
  • SOL SOL6   RE      LA LAsus2        LA LAsus2
    SOL SOL6   RE      LA LAsus2        LA LAsus2
    
    SOL                RE
    Creo que con una canción
                           LA
    la tristeza es mas hermosa.
    SOL                       RE                LA
    Creo que con una palabra puedo decir mil cosas.
              SIm                      FA#m
    Pero no creo en el circo de la información.
         SOL            RE                  LA
    Todo decanta en tu amor .... y en mi dolor.
    
    SOL                         RE
    Creo que es mejor morir de pie
                      LA
    que vivir de rodillas.
    SOL                         RE                  LA
    Creo que el viento me alcanzó el olor de tu mejilla.
    
  • El bajo entra después de la ronda de la guitarra
    
    Intro
    
    
    
    G|----------------------------------------------------------------------
    D|---5/17----17--16--14--12-----14--12----------------16--12------------
    A|-----------------------------------------12--12-----------------------
    E|----------------------------------------------------------------------
    
    
    
    1)
    
    
     Creo que con una cancion la tristeza es mas hermosa
    G|----------------------------------------------------------------------
    D|-17-----17--16--14--12---------17--12--11-----5-7-9-8-7-6-------------
    A|----------------------------------------------------------------------
    E|----------------------------------------------------------------------
    
    1) Creo que con una palabra puedo decir mil cosas
    
    2)
    
        Pero no creo en el circo de la información,todo decanta en tu amor
    G|---------------------------------------------------------------------
    D|--------9-------------9---11---12—------15~~--17---17--16--14--12x---
    A|--------------------
  • +
    ¡Colabora con nosotros!
    Envíanos tu versión de esta canción

Creo Lyrics
Creo que con una canción
la tristeza es más hermosa.
Creo que con una palabra
puedo decir mil cosas.
Pero no creo en el circo
de la información.
Todo decanta en tu amor
y en mi dolor.
Creo que es mejor morir de pie
que vivir de rodillas.
Creo que el viento me alcanzó
el olor de tu mejilla.
Creo en mi guitarra, creo en el
sol [si me cura las heridas],
creo en tu voz.
Creo en la vida, en la noche,
en tu alma y no creo
en todo lo demás.
Creo en tu estrella,
en aquella que busco
en mi sueño mejor
para poder luchar.
Creo en esas tarde que viví
jugando a la pelota.
Creo que educar
es combatir
y el silencio
no es mi idioma.
Creo en tu sonrisa,
creo en mí si te veo hoy
y me pedís que no
me rinda,
sigo por vos.
Creo en la lluvia cuando cambia
el olor de mi tierra.
Creo en el mar
cuando amanece
abrazándose a las
piedras.
Creo en los jazmines
que un Dios me bajó
esa vez, para poder
conocerte como mujer.




[Creo acordes][Creo cifra]
© LaCuerda.net · legal notice · privacy · es · en · pt · contact us
DINAMICO