Guitar Chords » C »Cadillac » Perdi mi oportunidad (Tab)

Perdi mi oportunidad
Cadillac

Lyrics, Chords & Tabs for Guitar, Bass & Ukulele

  • e---------------------------------------
    B-----------3----------3----------3^1---   Am7/G, D72Sus
    G---------0----------0----------0-------
    D-------4----------4----------4---------
    A---------------5-----------5-----------
    E----3----------------------------------
    
    
    GM7             Am7/G                Bm7
       No quiero que me vuelva a ocurrir
                       GM7
    me he quedado sin fuerzas
    Em7            Am7         D74Sus      GM7
       luchando por ti, mi mundo se me hundió.
    
    e---------------------------------------
    B-----------3----------3----------3^1---  Am7/G, D72Sus
    G---------0----------0----------0-------
    D-------4----------4----------4---------
    A---------------5-----------5-----------
    
  • Intro: [ G (x3) - C ] 
                          |-C-|
    e|----------------------------0-|
    B|-------3-------3-------3---1--|
    G|--------------------------0---|
    D|-0-4-5---0-4-5---0-4-5---2----|
    A|------------------------------|
    E|------------------------------|
    
    G                       C 
    No quiero que me vuelva a ocurrir 
    D                   G
    me he quedado sin fuerzas 
    Em            Am        D       G    (Riff)
    luchando por ti, mi mundo se cambió. 
    G                       C 
    Por que me tiene que pasar a mí 
    D                         G
    me siento fuera de sitio 
    Em            Am        D       G     (Riff)
    
  • SOL                        DO
    No quiero que me vuelva a ocurrir
    SIm                 MIm
    me he quedado sin fuerzas
    DO           LAm           RE
    luchando por ti el mundo se me hundio
    SOL                 DO
    porque me tiene que pasar a mi
    SIm                MIm
    me siento fuera de sitio
    DO            LAm         RE     
    andando por ahi sin saber que hacer
      CORO
         DO          RE             SIm          MIm
         Perdi mi oportunidad no la supe aprovechar
         DO                     RE        SOL
         y ahora hay otro ocupando mi lugar
         DO             RE              SIm        MIm
         ya no se puede arreglar la distancia enfriada
         DO           RE             MI
    
  • +
    ¡Colabora con nosotros!
    Envíanos tu versión de esta canción

Perdi mi oportunidad Lyrics
No quiero que me vuelva a ocurrir
me he quedado sin fuerzas
luchando por ti el mundo se me hundio
porque me tiene que pasar a mi
me siento fuera de sitio
andando por ahi sin saber que hacer
Perdi mi oportunidad no la supe aprovechar
y ahora hay otro ocupando mi lugar
ya no se puede arreglar la distancia enfriada
todo lo que hubo entre los dos
El amor nunca podra cambiar
si se pudiera volver hacia atras
buscar el tiempo perdido
y recuperar toda tu amistad
porque tuvimos que acabar asi
sin apenas darnos cuenta
me vovera a ocurrir nunca cambiare.
REPETIR EL CORO
Esta cancion tiene un rasgueo algo peculiar espero
que la puedan sacar y les guste estos acordes nos
vemos PANCHO

Perdi mi oportunidad Video
[watch more videos]




[Perdi mi oportunidad acordes][Perdi mi oportunidad cifra]
© LaCuerda.net · legal notice · privacy · es · en · pt · contact us
DINAMICO