Guitar Chords » C »Caballo Dorado » Payaso de rodeo (Tab)

Payaso de rodeo
Caballo Dorado

Lyrics, Chords & Tabs for Guitar, Bass & Ukulele

  • RE
    Cruzando la frontera me encontré con el
                                      LA
    era un tipo medio raro pero me cayo bien
    
    me dijo viajo en carretera espero pronto llegar
                          RE
    al rodeo que me espera allá
    
    
    RE
    Me dijo con certeza que había
                                                       LA
    mas emoción que romper un sombrero o disparar un cañon
    
    salvar la vida de un jinete cuando mal anda su suerte
                        RE
    soy payaso de rodeo o
    
    
    
  • e ----------10-----------10-----------10-10--------------------------
    B -10-12-10----10-12-10------10-12-10-------12-10--------------------
    G -------------------------------------------------------------------
    D -------------------------------------------------------------------
    A -------------------------------------------------------------------
    E -------------------------------------------------------------------
    
    e ----------10-10----------------------------------------------------
    B -10-12-10-------12-10-12-10-13-13-12-10--10-12-10-13-13-12-10-12-10
    G -------------------------------------------------------------------
    D -------------------------------------------------------------------
    A -------------------------------------------------------------------
    E -------------------------------------------------------------------
    
    e -------------------------------------------------------------------
    B -13-13-12-10--10-12-10-13-10-12-10---------------------------------
    G -----------------------------------11----9----------11-------------
    D --------------------------------------12---12----12----12----------
    A -------------------------------------------------------------------
    E -------------------------------------------------------------------
    
  •  bueno ps ahi les va lo del intro por que estas mi version esta
    mas facil je je sin ofender las otras estan mal
    
    
    e-----------10---------10-----------10---------------------|
    B---10-12-10---10-12-10----10-12-10----10-12-10------------|
    G----------------------------------------------------------|
    D----------------------------------------------------------|
    A----------------------------------------------------------|
    E----------------------------------------------------------|
    
    
    
    e----------10---------10------------------------------------|
    B--10-12-10---10-12-10--10-12-10-12/13-10-12-10-------------|
    G-----------------------------------------------------------|
    D-----------------------------------------------------------|
    A-----------------------------------------------------------|
    E-----------------------------------------------------------|
    
    
    e----------------------------------------------
    B-10-12-10-12/13-12/13-13-10-12-10-13-10-12-10-|
    G---------------------------------------------
  • Ahi les va otra rola q igual estuve buskndo y no la encontre y me daba
    un buen de hueva sakrla de oido pero en realidad esta bn facil.
    Hecha por Irán ja ja.        (G=SOL,D=RE,A=LA,E=MI)
    
    G |-------------------------------------------------|---------------
    D |-------------------------------------------------|---------------
    A |--5-----5-----5--------7-----7-----7-----4--5----|5-----5-----5--
    E |-----5-----5-----5--5-----5-----5-----5--------5-|---5-----5-----
    
                                       Aqui es donde tok solo el bajo.
    G |------------------------------|------------------*---------------
    D |------------------------------|----4-7-9-10-9-7-9*---------------
    A |--------7-----7-----7-----4--5|--5---------------*5---5---5------
    E |--5--5-----5-----5-----5------|------------------*--5---5---3-4-5
    
     Hacen pausa en la 5ta vez  x5 Les digo ven.......
    D |-------------------------*--------------------------------------|
    D |-------------------------*--------------------------------------|
    A
  • +
    ¡Colabora con nosotros!
    Envíanos tu versión de esta canción

Payaso de rodeo Lyrics
Cruzando la frontera me encontré con el
era un tipo medio raro pero me cayo bien
me dijo viajo en carretera espero pronto llegar
al rodeo que me espera allá
Me dijo con certeza que había
mas emoción que romper un sombrero o disparar un cañon
salvar la vida de un jinete cuando mal anda su suerte
soy payaso de rodeo o
Le digo ven, ven, ven animalito ven
ven y sigueme y veras lo que vas a aprender
no ves que es uno y va a partir
chico muy listo y muy gracioso soy payaso de rodeo o
Así viajamos largo tiempo y luego se marcho
dejándome un mensaje que recuerdo hoy
lo peligroso es gracioso lo difícil es hermoso
soy payaso de rodeo o
Le digo ven, ven, ven animalito ven
ven y sigueme y veras lo que vas a aprender
no ves que es uno y va a partir
chico muy listo y muy gracioso soy payaso de rodeo o
Le digo ven, ven, ven animalito ven
ven y sigueme y veras lo que vas a aprender
no ves que es uno y va a partir
chico muy listo y muy gracioso soy payaso de rodeo o




[Payaso de rodeo acordes][Payaso de rodeo cifra]
© LaCuerda.net · legal notice · privacy · es · en · pt · contact us
DINAMICO