Guitar Chords » B »Los Bunkers » Llueve sobre la ciudad (Tab)

Llueve sobre la ciudad
Los Bunkers

Lyrics, Chords & Tabs for Guitar, Bass & Ukulele

  •     Am                   Em
        Lo intento cada vez mejor
                  F
        y no estare
                E
        satisfecho hasta olvidarme
                 Am
        al fin de ti
        E      A
        como soñe
    
        Dm                  Am
        Tengo tantas cosas que decir
        Dm                  Am
        que no puedo recordar
        Dm                      Am
        pienso que es muy tarde para mi
        G
        pienso que es momento
    
    
  •     INTRO: LAm MIm FA MI
    
        LAm                  MIm
     A) Voy caminando sin saber
                 FA
        nada de ti
              MI
        ni siquiera el agua
                       LAm
        que rodea mis pies
        MI         LAm
        puedo sentir
    
     A) Lo intento cada vez mejor
        y no estare
        satisfecho hasta olvidarme
        al fin de ti
        como soñe
    
        REm                  LAm
    
  • Intro: LAm - SOL - FA - MI7
    
    LAm                 SOL         FA
    Voy caminando sin saber nada de ti
          MI7                        LAm  MI7      LAm
    ni siquiera el agua que rodea mis pies puedo sentir
    
    (mismos acordes)
    Lo intento cada vez mejor y no estare
    satisfecho hasta olvidarme ya de ti como soñe
    
    (parte B)
    REm                 LAm
    Tengo tantas cosas que decir
    REm              LAm
    que no puedo recordar
    REm                    LAm
    pienso que es muy tarde para mi
    SOL
    pienso que es momento de olvidarme ya de ti
    
  • |-------------------3-5-3--8-10-11/12--
    |---------------3-5--------------------
    |---------2-4-5------------------------
    |---2-5-2------------------------------
    |--------------------------------------
    |--------------------------------------
    
    12-11----11-10-------------------------15-17-
    ------13-------13-10-13-10------10-13-15-17-------
    ---------------------------9-12-------------------
    --------------------------------------------------
    --------------------------------------------------
    --------------------------------------------------
    
    ---12/17-17-17-17-17-8----8----11-10-8--------
    -----------------------10---10--------10-8-10-
    ----------------------------------------------
    ----------------------------------------------
    ----------------------------------------------
    ----------------------------------------------
    
  • Llueve sobre la ciudad de Los BunKers...
    
    Intro (0:08)
    G-------------------------------------
    D-------------------------------------
    A-------------------------------------
    E---03-5~~-5-3~~-1~~~0~~-03-5~~-3-5~--
    
    Lo intento cada vez mejor...
    G-----------------------------------
    D-----------0h2-5~~~2h5-3-2--3~~~---
    A---0~~~2-3-------------------------
    E-----------------------------------
    
    Satisfecho hasta olvidarme...
    G----------------------------------------
    D-----3-2--------------------------------
    A---3------5--3--2--0~-------0-0-0-023---
    E-----------------------0~-0-------------
    
    Tengo tantas cosas que decir...
    G-------------------------------------
    D-------------------------------------
    A---5-5-5-5---------5-5-5-5-----------
    E-----------5-5-5-5---------5-3-1-0---
    
    Pienso que es muy tarde...
    G----------------------------------------------
    D------------------------------/5--3-2---------
    A---5-5-5-5------------------------------------
    E------------5-5-5-5--3-3-3-3----------0-1-3---
    
    Ll
  • Bueno el teclado d esta cancion es muy simple,aki les va:
    
    INTRO:
    
    Lam (la-do-mi)
    se tokan el do y el mi juntos y despues el la al iwal
    k en todas las demas notas.
    Sol*(sol-si-mi)
    Fa (fa-la-do)
    Mi7 (mi-sol#-re)
    
    
    Versos:
    a)Lam Sol* Fa Mi7 la*(mi-la-do) Mi(mi-sol#-si) la* Mi
    
        rem               lam
    b)tengo tantas cosas que decir.....
     Sol
    pienso que es momento de olvidarme ya de ti
    
    
    Coro: Lam Sol Fa Sol
    
    
    
    Solo:
    Mi Fa# sol# la si si do re mi sol la
    la la do re mi mi re do re# re do la do
    la la sol la do re mi sol la
    mi la (rapidamente 3 veces)
    re la do la re# re do la sol la mi mi sol mi
    do la do la la do la la sol sol la do
    [do# re do# re] do re
    
    
    *lo k esta en[]se toka como golpeando rapido y suave las notas
    
    
    b)
    
    coro hasta k termina.... termina en Lam.
    
    
    
    weno, esta es la gran cancion de los bunkers!!! k la disfruten!!
    
    
    un saludo para mi esposa k la amo infinitamente todo!!! x)***
  • +
    ¡Colabora con nosotros!
    Envíanos tu versión de esta canción

Llueve sobre la ciudad Lyrics
Lo intento cada vez mejor
y no estare
satisfecho hasta olvidarme
al fin de ti
como soñe
Tengo tantas cosas que decir
que no puedo recordar
pienso que es muy tarde para mi
pienso que es momento
de olvidarme ya de ti
Llueve sobre la ciudad
porque te fuiste y ya
no queda nada mas
Llueve sobre la ciudad
porque te fuiste y ya
no queda nada mas
Voy caminando sin saber
nada de mi
porque todo lo que
siempre quise ser
ya no lo fui
La muerte es mi felicidad
lo se muy bien
hoy voy a considerarlo una vez mas
y mas que ayer
Cuanto tiempo he malgastado aqui
sin tener nada que hacer
si tu me devuelves lo que di
ya no habra que preocuparse
para ser feliz
Llueve sobre la ciudad
porque te fuiste y ya
no queda nada mas
Llueve sobre la ciudad
porque te fuiste y te
perdiste junto a mi felicidad
Tengo tantas cosas que decir
tantas que ya me olvide
te lo he dicho una y otra vez
creo que es momento
de olvidarme y no volver
Llueve sobre la ciudad
ya no queda nada mas
llueve sobre la ciudad
ya no queda nada
y tu no estas
Y ACABAS CON Am
tambien tengo la tablatura de y volvere de los bunkers y otras canciones
que por weba o por que lacuerda.net no deja subir
canciones en ingles no estan en la cuerda.net
espero ke les aya gustado si tienen dudas o quieren
que les pase alguna otra cancion este es mi correo:
larr_200@hotmail.com




[Llueve sobre la ciudad acordes][Llueve sobre la ciudad cifra]
© LaCuerda.net · legal notice · privacy · es · en · pt · contact us
DINAMICO