Guitar Chords » B »Bryndis » Quizas si quizas no (Tab)

Quizas si quizas no
Bryndis

Lyrics, Chords & Tabs for Guitar, Bass & Ukulele

  •       C Am F G  ;  luego se empieza con el punteo.
    
    
    e:-3-3-3-3-3-5-0-0-------|-3-3-3-3-3-5-1-1-0-0---|-5-5-5-5-5-5-1-1-0-0---|
    B:-----------------3-3-1-|---------------------3-|---------------------3-|
    G:-----------------------|-----------------------|-----------------------|
    
    
    e:----5-5-5-5-5-7-7-8-10-10-10---|---12-10-12----3-3-3-5-5-5-7-7-7-10-5--|
    B:-------------------------------|---------------------------------------|
    G:-------------------------------|---------------------------------------|
    
    
    e:--5--13-12-13---5-5-5-7-7-7-9-9-9-11--7-5-3---|
    B:----------------------------------------------|
    G:----------------------------------------------|
    
    
             C
       Me dira
    
  • INTRO F Gm A# C
    
    
          F        Gm
    Me dira basta ya
           A#       C
    y se ira de mi lado
           F         Gm
    yo la vi junto a el
            A#              C
    comprendi que habia perdido
    
    
                    F
    Sus ojos le gritaban que lo amaba
                      Gm
    como hace mucho que no hace conmigo
                     A#
    me mira hoy con pena porque sabe
                    C
    
  •   G         E
    Me dirá, basta ya
          Am          D7
    Y se ira, de mi lado
           G           E
    Yo la vi, junto a el
            Am          D7
    Y comprendí, que había perdido.
                    G
    Sus ojos le gritaban que lo amaba
                     E
    Como hace mucho que lo hacia conmigo
                     Am
    Me mira hoy con pena por que sabe
                    D7
    Que la amo locamente como ayer
                    G
    Recuerdo aquella luna en su cuarto
                         E
    Y el viento acariciándole la cara
    
  • +
    ¡Colabora con nosotros!
    Envíanos tu versión de esta canción

Quizas si quizas no Lyrics
Me dira basta ya
y se ira de mi lado
yo la vi junto a el
comprendi que habia perdido
Sus ojos le gritaban que lo amaba
como hace mucho que no hace conmigo
me mira hoy con pena porque sabe
que la amo locamente como ayer
Recuerdo aquella luna en su cuarto
el viento acariciandole la cara
cuando heramos felices de estar juntos
y ahora otros sueños nos separan
(Llorare) quizas si quizas no si no lloras tu
(escribire) quizas si quizas no si no escribes tu
(mienteme) no me importa creere lo que digas tu
(olvidare) no te visto con el si lo juras tu
No ves que estoy llorando como un niño
como un mendogo pido tu cariño
no tengo dignidad ni tengo orgullo
porque te amo mucho mas que eso
Como a Dios mismo
te estoy rogando
eres mi vida
no me abandones
No vez....
llorare...




[Quizas si quizas no acordes][Quizas si quizas no cifra]
© LaCuerda.net · legal notice · privacy · es · en · pt · contact us
DINAMICO