Guitar Chords » B »Bryndis » Pero tu no estás (Tab)

Pero tu no estás
Bryndis

Lyrics, Chords & Tabs for Guitar, Bass & Ukulele

  • REm                     DO 
    cada arardecer salgo a caminar
               REm    
    pero tu no estàs,y me tiembla 
    SOLm                      FA  
    tanto la voz al decir tu nombre
                   SOLm
    mujer,yme da fastidio pensar 
                  LA7
    que tu estàs con el
       REm                 DO 
    cada atardecer en la habitacion
               REm            SOLm
    donde tu no estas,siente soledad
                           FA 
    hoy mi piel,y mis manos palpan
                       SOLm
    tu ayer,tu adios de espinas 
                LA 
    cobrò a mi corazon
    
  • Intro
    E|------|-----|-----|-----|------|-----|-----|-----|----------|
    A|----2-|---2-|---0-|---2-|-2--2-|---2-|---0-|---2-|-2-2---2--|
    D|--2---|-2---|-0---|-2---|--2---|-2---|-0---|-2---|-----2----|
    G|------|-----|-----|-----|------|-----|-----|-----|----------|
    
    Cada amanecer
    E|----------|-----|-----|-----|------|
    A|--2-2---2-|---2-|---0-|---2-|------|
    D|------2---|-2---|-0---|-2---|-2-0--|
    G|----------|-----|-----|-----|------|
    
    Y me tiembla tanto la voz
    E|------|-----|-3---|-3---|-----|-----|---2-|------------|
    A|--0---|-0---|---5-|---5-|-0---|-0---|-2---|-2----------|
    D|----2-|---2-|-----|-----|---2-|---2-|-----|-------5-4--|
    G|------|-----|-----|-----|-----|-----|-----|---4-2------|
    
    Cada atardecer
    E|------|-----|-----|------|
    A|----2-|---0-|---2-|-2----|
    D|--2---|-0---|-2---|--2-0-|
    G|------|-----|-----|------|
    
    siente soledad hoy mi piel
    E|------|-----|-3---|-3---|------|-----|-----|------------|
    A|--0---|-0---|---5-|---5-|-00---|-0---|-2---|------------|
    D|----2-|---2-|-----|---
  • +
    ¡Colabora con nosotros!
    Envíanos tu versión de esta canción

Pero tu no estás Lyrics
cada arardecer salgo a caminar
pero tu no estàs,y me tiembla
tanto la voz al decir tu nombre
mujer,yme da fastidio pensar
que tu estàs con el
cada atardecer en la habitacion
donde tu no estas,siente soledad
hoy mi piel,y mis manos palpan
tu ayer,tu adios de espinas
cobrò a mi corazon
tengo tantas cosas que olvide
decirte un dia ya no puedo mas
ya no puedo mas seguir sufriendo
esta agonia
tengo tantas cosas que olvide
decirte un dia,no quiero pensar
no quiero pensar que ya no estàs
si fuiste mia
sufro libertad desde hace
un mes por que tu no estàs
yo fui puente tu fuiste rio
y tu paso al fin me quebro
como barca a la deriba
me he quedado yo
tengo tantas cosas.......etc




[Pero tu no estás acordes][Pero tu no estás cifra]
© LaCuerda.net · legal notice · privacy · es · en · pt · contact us
DINAMICO