Guitar Chords » B »Bon Jovi » Como yo nadie te a amado (Tab)

Como yo nadie te a amado
Bon Jovi

Lyrics, Chords & Tabs for Guitar, Bass & Ukulele

  •  E                   B         G
    Yo no vi las flores marchitar
                              D      Dm
    y ese frio en tus ojos al mirar
                    A           E
    no,no vi la realidad, me ibas a dejar
    
    E                      B             G
    dicen que la vida no es como la vez
                          D
    para aprender hay que caer
           Dm            A
    para ganar hay que perder
        E
    yo di todo por ti
    
    CORO1:
    D                F#m                 E
    llore y llore y jure que no iba a perderte
    D                F#m                  E
    
  • e-------------------7---------------------------------------------
    B--9--9--7---7---9------5-----------------------------------------
    G----------------------------5--5---4--4/6--4---------------4-6/8----
    D-----------------------7----7--7---2---------4/6--4------4------
    A--7-----5--------------------------------------------4/6---------
    E-----------------------------------------------------------------
    
    
    E                   B
    Yo no vi las flores marchitar
    Bm                              A
    Ni ese frío en tus ojos al mirar
    Am           E           B
    No, no vi la realidad me ibas a dejar
    
    
    E
    Dicen que la vida pebe
    B
    No es como la ves
    
  • Tono: A
    
    Intro (Riff)
    E|--------------------7--------------------------------------------
    B|--9-9-9-7-7---7-7-9---5------------------------------------------
    G|--------------------------5--5-4-4-6-----------------------------
    D|----------------------7---7--7-2-----4/6-4-----------------------
    A|--7---7---6---5--------------------------------------------------
    E|-----------------------------------------------------------------
    
    
    E                   C#m
    Yo no vi las flores marchitar
    G#m                              Bm
    Ni ese frío en tus ojos al mirar
    F#m           E           B
    No, no vi la realidad me ibas a dejar
    
    
    E                    C#m
    
  • +
    ¡Colabora con nosotros!
    Envíanos tu versión de esta canción
  • Tutorial
    HD
    Como yo nadie te ha amado (this ain't a love song)
    - Bon Jovi: GUITAR SOLO #24
    0:35

Como yo nadie te a amado Lyrics
Yo no vi las flores marchitar
y ese frio en tus ojos al mirar
no,no vi la realidad, me ibas a dejar
dicen que la vida no es como la vez
para aprender hay que caer
para ganar hay que perder
yo di todo por ti
CORO1:
llore y llore y jure que no iba a perderte
trate y trate de negar este amor tantas veces baby
CORO2:
Si mis lagrimas fueron en vano
Si al final yo te ame demasiado
Como yo como yo nadie te ha amado
cada hora una eternidad
cada amanecer un comenzar
iluciones nada mas
que facil fue soñar
tantas noches de intimidad
parecia no acabar
nos dejamos desafiar
y hoy nada es igual
PREcoro:
se que en verdad el amor al final siempre duele
no lo pude salvar y hoy voy a pagarlo comprendes
coro2:
esta ves la pasion ha ganado
y por eso sigo esperando
como yo,como yo nadie te ha amado
CORO1 Y 2
como yo, como yo nadie te ha amado
como yo, como yo nadie te ha amado
CUAL QUIER DUDA O CONSULTA MANDENME UN MENSAJE A
Lucasxmk@hotmail.com o Lucasxmkxxo@gmail.com

Como yo nadie te a amado Video
[watch more videos]




[Como yo nadie te a amado acordes][Como yo nadie te a amado cifra]
© LaCuerda.net · legal notice · privacy · es · en · pt · contact us
DINAMICO