Guitar Chords » B »Benny Ibarra » Cielo 2002 (Tab)

Cielo 2002
Benny Ibarra

Lyrics, Chords & Tabs for Guitar, Bass & Ukulele

  •     INTRO   G (x2)
    
              e|--3-3--0—-3~~~--|      
              B|--3-3--3--3-----|      
              G|--0-0--0--0-----|      
              D|--0-0--0--0-----|      
              A|--2-2--2--2-----|      
              E|--3-3--3--3-----|
    
    Esta nueva version de la cancion suena con poder,
    muy diferente a la original, pues aqui esta . . .
    
                 G5   C5       D5
    Cielo por tu luz, por esa caricia
            G5            C5       D5
    Yo seria capaz... de rendir  mi ser
               G5    C5                 D5    
    Ya no tiene caso, mirar hacia otro lado
            Em              C5          G5
    Todo lo que espero... lo encuentro en ti
    
  • INTRO : G
    
    RIFF 1
      G              C              D           G
    Cielo por tu luz , por esa caricia yo seria capaz de
       C       D         G            C                 D
    rendir mi ser, ya no tiene caso,  mirar hacia otro lado
               Em            C         G
    todo lo que espero lo encuentro en ti. 
    
    
    *CORO*
    
                      Em     C          G
    El cielo en tu mirada,  cada madrugada 
                Em      C        D                   Em
    es a donde pierdo mi confusion ,y cuando estas ausente 
     C             G           Em      C    G
    te abrazo a mi mente, cielo para sobrevivir.
    
    
  •   G MAJ...
    E-7-5-8---7-5-8--*
    B-8-8-8---8-8-8--*
    G-7-7-7---7-7-7--*
    D----------------*
    A----------------*
    E----------------*
    
    
    
    Y ESTE ES EL SOLO: (AL FINAL LE METI UN POCO DE LO MIO)
    
    
    
      G MAJ                  C MAJ                  D MAJ                                             
    E-10-10----------------*-10-10----------------*----------------------------------------*
    B-------10-10-8-8-10-8-*-------10-10-8-8-10-8-*-10-10-10--8-8-8-8--7-7-7--8-8-8--10-10-*
    G----------------------*----------------------*--7--7--7--7-7-7-7--7-7-7--7-7-7---7--7-*
    D----------------------*----------------------*----------------------------------------*
    A----------------------*----------------------*----------------------------------------*
    
  • La transcripcion esta perfectamente bien, nadamas escuchen bien la rola por que 
    tiene muchos detalles que al escucharla superficialmente no los van a oir;
    y pues a qui la tienen
    
    
    INTRO 
    G|------------------------------------------------------------------------|
    D|-------------------------5-5-5---5--------------------------------------|
    A|---------------------3/5-------5--------------------10-10-10-10---------|
    E|-15/-3--3-3-3----3-------------------3--3-3-3---/10-------------10-10---|
    B|---------------3--------------------------------------------------------|
    
    VERSO 1
     
     cielo por tu luz....
    G|------------------------------------------------------------------------------------------|
    D|------------------------------------------------------------------------------------------|
    A|----------------------------------------------------3--3-3--5/7--5--5-5-----------5---5---|
    E|-3--3-3---------------------------------10/-3--3-3-----------------------10/----5---5---5-|
    B|--
  • cielo 2002
    bajo
    
    
    intro:                                           verso:
    
                                    cielo por tu luz, por esa caricia, yo seria capaz de rendir mi ser
    
    -----------------------------------------  /--------------------------------------------------------------
    ------------------------------------------ /--------------------------------------------------------------
    -5 /-----------------3333-*2--3/5/3 /-----------3333--------5555---------------------------333-----555-
    ------------3333----------------------- /---3333----------------------------------3333---------------------
    
    ya no tiene caso, mirar hacia otro lado,  todolo q espero lo encuentro en ti
    
    
    /--------------------------------------------------------------------------------------------------------
    /---------------------------------------------------------------------------------------------------------
    /-----------------------33333------------------5555----------------------------33333----
  • G--------------------------------------------
    D--------------------------------------------
    A------3-------------------3-3-5-------------
    E--O-O---3--3/5/3--5-5-0-1-------------------
    
    G--------------------------------------------
    D--------------------------------------------
    A------3--------------3-3--------------------
    E--O-O---3-3-4-5-0-1------3-3----------------
    
    G--------------------------------------------
    D--------------------------------------------
    A----------3-3-------------------------------
    E--555-0-0-----3-----------------------------
    
    EN LA PARTE DEL REQUINTO VA ESTO
    
    G--------------------------------------------
    D--------------------------------------------
    A------3-----------3--2-2--------------------
    E--0-0---3-3---0-0---------------------------
    
    DESPUES SE REPÍTE LO MISMO
    
    G--------------------------------------------
    D--------------------------------------------
    A------3-------------------3-3-5-------------
    E--O-O---3--3/5/3--5-5-0-1------
  • +
    ¡Colabora con nosotros!
    Envíanos tu versión de esta canción

Cielo 2002 Lyrics
RIFF 1
Cielo por tu luz , por esa caricia yo seria capaz de
rendir mi ser, ya no tiene caso, mirar hacia otro lado
todo lo que espero lo encuentro en ti.
El cielo en tu mirada, cada madrugada
es a donde pierdo mi confusion ,y cuando estas ausente
te abrazo a mi mente, cielo para sobrevivir.
RIFF 2
Sientete segura, que no te quepa duda cuenta con mi
vida y mi devocion, vivo para amarte, para mi alejarme
es como quedar sin respiracion
El cielo en tu mirada, cada madrugada
es a donde pierdo mi confusion y cuando estas ausente
te abrazo a mi mente, cielo para sobrevivir.
cielo para poder vivir

El cielo en tu mirada, cada madrugada
es a donde pierdo mi confusion y cuando estas ausente
te abrazo a mi mente, cielo para sobrevivir.
cielo para poder vivir
Cielo para sobrevivir
Gracias fue una colaboración de KLOWN ®.




[Cielo 2002 acordes][Cielo 2002 cifra]
© LaCuerda.net · legal notice · privacy · es · en · pt · contact us
DINAMICO