Guitar Chords » B »Benito Kamelas » Ayer Soñé (Tab)

Ayer Soñé
Benito Kamelas

Lyrics, Chords & Tabs for Guitar, Bass & Ukulele

  •       SOL5                            SI5
    Ayer soñe, que una noche fria de invierno
                     MI5                       DO5
    fue cuando te conoci y empezo este bello sueño.
         SOL5                            SI5
    Ayer soñe, que al principio me asustabas
                       MI5                     DO5
    pero pronto comprendi que sin ti yo no era nada.
    
          LA5                  DO5
    Ayer soñe, que cantaba para ti
                        SOL5                  RE5 RE#5
    y aunque habia 1000 personas solo estabas tu alli.
             MI5                     DO5
    Y comprendi cuantas horas te abrace, que mi vida
           SOL5                        RE5
    ya era tuya, que a mi luna ya encontre.
    
          SOL5                   SI5
    Ayer soñe, que buscaba tu mirada
    
  •     SOL5   SI5   MI5   DO5  RE5    MI*   LA5   RE#5
    e|-----------------------------------------------------------|
    B|-----------------------------------------------------------|
    G|------------4------------5-----7-------9--------------8----|
    D|---5--------4------2-----5-----7-------9-------7------8----|
    A|---5--------2------2-----3-----5-------7-------7------6----|
    E|---3---------------0---------------------------5-----------|
    
    intro:
    X = palm mute
    e|----------------------------------------------------------------|
    B|----------------------------------------------------------------|
    G|----------------------------------------------------------------|
    D|----------2---5-5-5---7-7-7----------------2--7--7---5-5-5------|
    A|--0-3-0---0---3-3-3---5-5-5--------0-3-0---0--5--5---3-3-3------|
    E|--------3--------------------------------3----------------------|
    
    
    e|----------------------------------------------------------------|
    B|----------------------------------------------------------------|
    
  • +
    ¡Colabora con nosotros!
    Envíanos tu versión de esta canción

Ayer Soñé Lyrics
Ayer soñe, que una noche fria de invierno
fue cuando te conoci y empezo este bello sueño.
Ayer soñe, que al principio me asustabas
pero pronto comprendi que sin ti yo no era nada.
Ayer soñe, que cantaba para ti
y aunque habia 1000 personas solo estabas tu alli.
Y comprendi cuantas horas te abrace, que mi vida
ya era tuya, que a mi luna ya encontre.
Ayer soñe, que buscaba tu mirada
que debajo del mantel nuestras manos se enlazaban.
Ayer soñe que despertaba contigo
y que el sol se habia enfadao
porque te mordia el ombligo.
Ayer soñe, que cantaba para ti
y aunque habia 1000 personas solo estabas tu alli.
Y comprendi cuantas horas te abrace, que mi vida
ya era tuya, que a mi luna ya encontre.
PUNTEO MU GUAPO
Una noche tu mirada ya no me miraba igual,
me dijiste entristecida que tenias que despertar,
sin mirarme me besaste y te marchaste sin mas.
Desde entonces solo puedo recordar que
Ayer soñe, que cantaba para ti
y aunque habia 1000 personas solo estabas tu alli.
Y comprendi cuantas horas te abrace, que mi vida
ya era tuya, que a mi luna ya encontre.
Y un duende de pronto aparece a mi lado
y me dice "amigo, no sigas llorando
que si ella te quiere nada cambiara".
Me mira a los ojos y me da un abrazo,
despierta colega y no olvides algo
que a veces los sueños se hacen realidad.
Ooooooo ayer soñe, que te mordia el ombligo.
Ooooooo y al despertar aun estabas conmigo.
Ooooooo y ayer soñe, que te morida el ombligo.
Ooooooo y al despertar aun estabas conmigo.




[Ayer Soñé acordes][Ayer Soñé cifra]
© LaCuerda.net · legal notice · privacy · es · en · pt · contact us
DINAMICO