Guitar Chords » B »Bacilos » Tabaco y chanel (Tab)

Tabaco y chanel
Bacilos

Lyrics, Chords & Tabs for Guitar, Bass & Ukulele

  • G           Cadd9
    Un olor a tabaco y channel
    Em                         D
    me recuerda el olor de su piel
    G               Cadd9
    una mezcla de miel y cafe
         Em                       D
    me recuerda el sabor de sus besos
    
    
    G                 Cadd9
    el color de el final de la noche
    Em               D                       C
    me pregunta donde fui a parar, donde estas
               Am   D             C
    que esto solo se vive una vez
           Am   D                G
    donde fuiste a parar donde estas.
    
    
    
  • INTRO: G - C - Em - D x2
    
    G           C
    Un olor a tabaco y channel
    Em                          D
      me recuerda el olor de su piel
    G                C
     una mezcla de miel y cafe
         Em                       D
    me recuerda el sabor de sus besos
    
    
    G                  C
     el color de el final de la noche
    Em               D                       C
      me pregunta donde fuy a parar, donde estas
                D                C
    que esto solo se vive una vez
             D                      G
    donde fuiste a parar donde estas.
    
  • A) G             D        
       Un olor a tabaco y chanel
       Em              C           D
       me recuerda el olor de su piel.
       G              D
       Una mezcla de miel y café,
             Em         C            D
       me recuerda el sabor de sus besos.
      
      
    B) G               D
       El color del final de la noche
       Em              C          D           C
       me pregunta donde fui a parar, donde estas 
                          D       C
       que esto solo se vive una vez
                         D           G
       donde fuiste a parar donde estás.
    
    
    
  • G Cadd9 Em D G Cadd9 Em D G
    
    G           Cadd9
    Un olor a tabaco y channel,
    Em                      D
    me recuerda el olor de su piel,
    G                Cadd9
    y una mezcla de miel y café,
          Em                  D
    me recuerda el sabor de sus besos,
    G            Cadd9             Em
    el color de el final de la noche,
                  D                        C
    me pregunta donde fui a parar; donde estas,
              Am     D         C
    que esto solo se vive una vez,
            Am       D           G
    donde fuiste a parar donde estas.
    
    coro:
    
  • e|---3---3------3--3---3------7--7--5--3--2--3--5--2----------------||
    B|-0---0---0--1------1---1--0------------------------3--------------||
    G|-----------------------------------------------------2--0---------||
    D|----------------------------------------------------------4-------||
    A|------------------------------------------------------------------||
    E|------------------------------------------------------------------||
    
    |-----2--3--3--------3--2--5--5--2--3--2--0--------------------------||
    |---3---------3--0--------------------------3--1--0--3--1--0--2--0--4||
    |-2----------------0-------------------------------------------------||
    |--------------------------------------------------------------------||
    |--------------------------------------------------------------------||
    |--------------------------------------------------------------------||
    
    |-----2--3--3--------3--2--5--5--2--3--2--0--------------------------||
    |---3---------3--0--------------------------3--1--0--3--1--0---------||
    |-2----------------0------------------------------------------2--0---||
    |-------------------------------------------------------------------4||
    |--------------------------------------------------------------------||
    |--------------------------------------------------------------------||
    
  • +
    ¡Colabora con nosotros!
    Envíanos tu versión de esta canción
  • Tutorial
    HD
    Como tocar TABACO Y CHANEL en Guitarra
    3:10
  • Tutorial
    HD
    Tabaco y Chanel - Bacilos (guitarra acustica)
    como tocar
    1:57

Tabaco y chanel Lyrics
Un olor a tabaco y chanel
me recuerda el olor de su piel.
Una mezcla de miel y café,
me recuerda el sabor de sus besos.


El color del final de la noche
me pregunta donde fui a parar, donde estas
que esto solo se vive una vez
donde fuiste a parar donde estás.
Un olor a tabaco y chanel
y una mezcla de miel y café
me preguntan por ella (ella)
me preguntan por ella.
Me preguntan también las estrellas
me reclaman que vuelva por ella
ay! que vuelva por ella (ella)
ay! que vuelva por ella.
a)Una rosa que no floreció
pero que el tiempo no la marchita.
Una flor prometida a un amor, que no fue
pero que sigue viva.
b)Y otra vez el color del final, del final de la noche
me pregunta donde fui a parar
que esto solo se vive una vez
donde fuiste a parar donde estas.
Pero fueron las mismas estrellas
que un día, marcarón mis manos
y apartaron la flor esa flor de mi vida, de mi vida...
No se va no se olvida,
no se va no se olvida
no se va no se olvida
nada, nada.
(se repite la última estrofa)




[Tabaco y chanel acordes][Tabaco y chanel cifra]
© LaCuerda.net · legal notice · privacy · es · en · pt · contact us
DINAMICO