Guitar Chords » A »los Auténticos Decadentes » No me importa el dinero (Tab)

No me importa el dinero
los Auténticos Decadentes

Lyrics, Chords & Tabs for Guitar, Bass & Ukulele

  • INTRO- LA - MI - RE - MI (2)
    
         LA                         MI
    Me dijeron que llamaste pero ya me habia ido
                FA#m                         DO#m
    Pues salimos mas temprano del taller
            RE                         MI
    Yo me vine caminando para no gastar dinero
            RE                    MI
    Y por eso llego tarde como ayer
    
    
          LA                                 MI
    Ya no trastes de ocultarme lo que me entere esta tarde
            FA#m            DO#m       RE
    Yo sabia algo andaba mal, menos mal que solo es eso
               MI                  RE                       MI
    Senti alivio lo confieso tuve miedo de que fuera otra mujer
    
    
    
  • iNtrO: A-C#m-D-E x2
    
    
    vErsOs:
          A                       C#m
    Me dijeron que llamaste pero ya me habia ido
            F#m                       C#m - Cm
    Pues salimos mas temprano del taller
           Bm                  E
    Yo me vine caminando para no gastar dinero
           D                     E
    Y por eso llego tarde como ayer
    
    
            A                            C#m
    Ya no trates de ocultarme lo que me entere esta tarde
          F#m             C#m - Cm        Bm
    Yo sabia algo andaba mal,      menos mal que solo es eso
        E                          D                         E
    Senti alivio lo confieso tuve miedo de que fuera otra mujer
    
  • Esta canción empieza en es segundo (00:13) ok
    
    
      (00:13)
    G|--------------|
    D|--------------|
    A|--5--3--2--0--|
    E|--------------|
    
    G|------------------------------------------------------|
    D|------------------4-7----4-7----2-5----2-5------------|
    A|----2-5----2-5--5------5------3------3-------5--5--5--|
    E|--3------3--------------------------------------------|
    
      Me dije...
    G|--------------------------------------------------------------|
    D|---------------------4-7----4-7----2-5----2-5----4-7----------|
    A|-------2-5----2-5--5------5------3------3------5-------5---3--|
    E|-----3------3-------------------------------------------------|
    
      Yo me...
    G|-----------------------------------------------------------|
    D|---------------------4-7----4-7----2-5----2-5----4-7----7--|
    A|-------2-5----2-5--5------5------3------3------5------5----|
    E|-----3------3----------------------------------------------|
    
      Ya no...
    G|--------------------------------------------------------------|
    D|--------------
  • +
    ¡Colabora con nosotros!
    Envíanos tu versión de esta canción

No me importa el dinero Lyrics
vErsOs:
Me dijeron que llamaste pero ya me habia ido
Pues salimos mas temprano del taller
Yo me vine caminando para no gastar dinero
Y por eso llego tarde como ayer
Ya no trates de ocultarme lo que me entere esta tarde
Yo sabia algo andaba mal, menos mal que solo es eso
Senti alivio lo confieso tuve miedo de que fuera otra mujer
Yo no quise preocuparte, No querias que supiera
te quedaste sin trabajo una veez mas
No me tumba un viento frio y si te tengo cerca mio
No le temo a lo que pueda suceder
A mi no me importa el dinero tengo lo que yo mas quiero a mi lado
Soy tu fiel compañera me gusta que seas asi como soy
Sos mi escudo ante el miedo y aunque se derrumbe el cielo
Nunca vas a estar solo, Por que siempre estare
vErsOs:
Como pude imaginarme que se te ocurriria dejarme
Si pasamos juntos mas de un temporal
Ni los tiempos buenos ni lo malos
Han podido lograr separarnos por que siempre fue mas fuerte nuestro amor
A mi no me importa el dinero tengo lo que yo mas quiero a mi lado
Soy tu fiel compañera me gusta que seas asi como soy
Sos mi escudo ante el miedo y aunque se derrumbe el cielo
Nunca vas a estar solo, Por que siempre estare
A mi no me importa el dinero tengo lo que yo mas quiero a mi lado
Soy tu fiel compañera me gusta que seas asi como soy
Sos mi escudo ante el miedo y aunque se derrumbe el cielo
Nunca vas a estar solo, Por que siempre estare
sALudOS A tOdA LA rAzA cUErdERa dE mANzAnillO !!!
pUeS eSO eS tOdO, dEdicAdA a mi
f L A k i t h A !!!!!!!!!!!!!!
tE AmOOO !!!!!!!!!!!!




[No me importa el dinero acordes][No me importa el dinero cifra]
© LaCuerda.net · legal notice · privacy · es · en · pt · contact us
DINAMICO