Guitar Chords » A »Atahualpa Yupanqui » El arriero (Tab)

El arriero
Atahualpa Yupanqui

Lyrics, Chords & Tabs for Guitar, Bass & Ukulele

  • Em                         B7
    En las aguas bailan los remolinos
                                     Em
    el sol juega en el brillo del pedregal
        E7                           Am
    y animando a la tropa por los caminos
               Em  B7         Em    C  B7  Em
    el arriero va, el arriero va . . .
    Em                                 B7
    es bandera de niebla su poncho al viento
                                Em
    lo saludan la flautas del pajonal
        E7                           Am
    y animando a la tropa por esos cerros
               Em  B7         Em
    el arriero va, el arriero va . . .
    
         Am                     Em
    Las penas y las vaquitas se van por la misma senda
         Am                     Em
    
  •   Cm         Cm/G      Cm            Cm/G     Cm
    e|----------3-|--3-4-6---|-8-11-10-8-7-8-|--3-4-6---|-8-11-10-8-7-8-|
    B|--4-3-4-6-4-|--4-6-8---|-9-13-11-9-8-9-|--4-6-8---|-9-13-11-9-8-9-|
    G|--5-4-5-7---|----------|---------------|----------|---------------|
    D|------------|--5-6-----|---------------|--5-6-----|---------------|
    A|----5-6-8-5-|----------|---------------|----------|---------------|
    E|------------|----------|---------------|----------|---------------|
    
      Cm/G         G7     Cm       Fm G7 | Cm | Fm G7 | Cm
    e|--3-3-8--7-8--|-------|-------|
    B|--4-4-9--8-9--|-8--6--|-4-----|
    G|--------------|-8--7--|-5-----|
    D|--5-5-10-9-10-|-------|-------|
    A|--------------|-------|-------|
    E|--------------|-------|-------|
    
    VERSO:
    Cm                              G7
    En las arenas bailan los remolinos
    
    
  • +
    ¡Colabora con nosotros!
    Envíanos tu versión de esta canción

El arriero Lyrics
En las aguas bailan los remolinos
el sol juega en el brillo del pedregal
y animando a la tropa por los caminos
el arriero va, el arriero va . . .
es bandera de niebla su poncho al viento
lo saludan la flautas del pajonal
y animando a la tropa por esos cerros
el arriero va, el arriero va . . .
Las penas y las vaquitas se van por la misma senda
las penas y las vaquitas se van por la misma senda,
las penas son de nosotros, las vaquitas son ajenas
las penas son de nosotros, las vaquitas son ajenas.
Un degüello de soles muestra la tarde
se apagaron las luces del pedregal
y animando a la tropa dale que dale
el arriero va, el arriero va . . .
¡ay malaya! la noche traiga recuerdos
que hagan menos pesada la soledad
como sombra en la sombra por esos cerros
el arriero va, el arriero va.
Las penas y las vaquitas . . .etc.




[El arriero acordes][El arriero cifra]
© LaCuerda.net · legal notice · privacy · es · en · pt · contact us
DINAMICO