Guitar Chords » A »Los Askis » Ay El Amor (Tab)

Ay El Amor
Los Askis

Lyrics, Chords & Tabs for Guitar, Bass & Ukulele

  • Bm
    Ay el amor
                 A
    es cosa tan rara el amor
             Bm
    alegria desilución
                 A
    ay cosa tan rara el amor 
                    Bm
    como lluvia con sol, el amor
                        A
    busca, enternece el alma el amor
                 Bm
    ay cosa tan rara el amor 
                      A
    lagrimas en la almohada, el amor
                   Bm
    es ternura y pasión
    
    
    
  • SOLm
    ¡Hay! el amor
                FA
    Es cosa tan rara el amor.
             SOLm
    Alegria, desilucion.
                   FA
    ¡Hay! cosa tan rara, el amor.
                   SOLm
    Como lluvia con sol, el amor.
    
                         FA
    Luz que enternece el alma, el amor.
                   SOLm
    ¡Hay! cosa tan rara, el amor.
                      FA
    Lagrimas en la almohada, el amor.
                   SOLm
    Es ternura y pasión.
    
    
  • E|-7--7--7---7-7-7--7-9--------9-7-9-10-7----7-10-7-10-9--------9-9-7--
    B|---7-10---------10---10----10----------7--7-----------10----10-10----
    G|------------------------9--9-----------------------------9--9--------
    D|---------------------------------------------------------------------
    A|---------------------------------------------------------------------
    E|---------------------------------------------------------------------
    
    
    E|--7--7----7--7--7---7-7-7--7-9--------9-7-9-10-7----7-10-7-10-9------
    B|-7-10-------7-10---------10---10----10----------7--7-----------10----
    G|--------------------------------9--9-----------------------------9---
    D|---------------------------------------------------------------------
    A|---------------------------------------------------------------------
    E|---------------------------------------------------------------------
    
    
    E|----9--9-7----10-9-7-
    B|--10-10------7-------
    G|-9-------------------
    D|---------------------
    
  • +
    ¡Colabora con nosotros!
    Envíanos tu versión de esta canción

Ay El Amor Lyrics
¡Hay! el amor
Es cosa tan rara el amor.
Alegria, desilucion.
¡Hay! cosa tan rara, el amor.
Como lluvia con sol, el amor.
Luz que enternece el alma, el amor.
¡Hay! cosa tan rara, el amor.
Lagrimas en la almohada, el amor.
Es ternura y pasión.
Es dulce como miel, (Amor, Amor)
Amargo como hiel. (Amor, Amor)
Tan bello como el sol, (Amor, Amor)
Triste como un adios.
Es dulce como miel, (Amor, Amor)
Amargo como hiel. (Amor, Amor)
Tan bello como el sol, (Amor, Amor)
Triste como un adios.




[Ay El Amor acordes][Ay El Amor cifra]
© LaCuerda.net · legal notice · privacy · es · en · pt · contact us
DINAMICO