Guitar Chords » A »Art Aguilera » Hay Libertad (Tab)

Hay Libertad
Art Aguilera

Lyrics, Chords & Tabs for Guitar, Bass & Ukulele

  • -------------------------------------
    
    REFRAN 1
    Dm                        Bb
    Hoy puedo danzar con libertad,
                   F
    Porque soy su Hijo,
                   C
    Porque soy su hijo.
    
    REFRAN 2
    Dm                         Bb
    Hoy puedo danzar con libertad,
                 F
    Porque soy amado,
                 C
    Porque soy amado.
    
    INTRO
    Dm | Bb | F | C |
    
  • Nota: FA
    
    Intro:  Dm  Bb  F  C
    
    Dm                      Bb
    Hoy puedo danzar con libertad
              F                   C
    Porque soy su hijo, Porque soy su hijo
    Dm                      Bb
    Hoy puedo danzar con libertad
            F                  C
    Porque soy amado,  Porque soy amado
    
              Dm                      Bb
    Podemos sentir Tu gozo, Podemos sentir Tu rio
           F                             C/E
    Hay sanidad en las aguas, queremos danzar
    
           Dm
    Hay libertad en la casa de Dios
    
  • Intro: Am F C G
    
    
    Am                        F
    Hoy puedo danzar con libertad
                   C                   G
    porque soy tu hijo, porque soy tu hijo
    
    Am                        F
    Hoy puedo danzar con libertad
    
                 C                 G
    porque soy amado, porque soy amado
    
    
    Intro: Am F C G
    
    
    Pre-Coro:
                  Am                      F
    
  • INTRO: Dm-Bb-F-C
    
    E----------------------------------------------------------------------
    B---------------------------------------------------------------------
    G-7-7--5-7-5-7--7-5-10-9-----------------------------------------------
    G----------------------------------------------------------------------
    D----------------------------------------------------------------------
    A----------------------------------------------------------------------
    E----------------------------------------------------------------------
    
    E----------------------------------------------------------------------
    B-----------------------------6-8--6s8-8s6-6s8-8s6-6s8-8s6-------------
    G-7-7--5-7-5-7--7-5-10-9--5--5-----------------------------------------
    D----------------------------------------------------------------------
    A----------------------------------------------------------------------
    E----------------------------------------------------------------------
    
    E-----5----------------------------------------------------------------
    B-6-8---8-6-5-6--------------------------------------------------------
    G---------------7------------------------------------------------------
    
  • +
    ¡Colabora con nosotros!
    Envíanos tu versión de esta canción
  • Tutorial
    HD
    Art Aguilera Hay Libertad Bass/Bajo Cover Tutorial (HD)
    4:46

Hay Libertad Lyrics
Hoy puedo danzar con libertad
Porque soy su hijo, Porque soy su hijo
Hoy puedo danzar con libertad
Porque soy amado, Porque soy amado
Podemos sentir Tu gozo, Podemos sentir Tu rio
Hay sanidad en las aguas, queremos danzar
Hay libertad en la casa de Dios
Hay libertad en la casa de Dios
Hay libertad, Hay libertad
Hay libertad en la casa
Hay libertad al danzar




[Hay Libertad acordes][Hay Libertad cifra]
© LaCuerda.net · legal notice · privacy · es · en · pt · contact us
DINAMICO