Guitar Chords » A »Ariel Ramírez » Alfonsina y el mar (Tab)

Alfonsina y el mar
Ariel Ramírez

Lyrics, Chords & Tabs for Guitar, Bass & Ukulele

  • INTRO: Dm  G  Em  Am  Dm  E  Am  
    
                    A7               Dm
    Por la blanda arena que lame al mar
                 E               Am
    Su  pequeña huella no vuelve más
                 Dm         G      C         Dm
    Y un sendero solo, de pena y silencio llegó
             Am      E  Am    A7
    Hasta el agua profunda
                 Dm      G     C        Dm
    Y un sendero solo de penas puras llegó
    Am         E Am
    Hasta la espuma
    
    Sabe Dios que angustia te acompañó
    qué dolores viejos calló tu voz
    para recostarte arrullada en el canto 
    de las caracolas marinas
    la canción que canta en el fondo oscuro del mar
    
  • INTRODUCCIÓN: Em B7 C7 B7 Em
    
    
    ESTROFAS:
    
    
             Bm7(b5)         E7      Am7
    Por la blanda arena que lame el mar
       F#m7(b5)        B7      Em
    Su pequeña huella no vuelve más
               Am      D7        G        C6
    Un sendero solo de pena y silencio llegó
    Em       B7         E7
    Hasta el agua profunda
             Am        D7     G     F#m7(b5)
    Un sendero solo de penas mudas llegó
    Em      B7   Em
    Hasta la espuma
    
    
    
  • e|---7---------7-----|-----------------|-3-2-0-2-----|
    b|-8-----8---------8-|-10---7-----10---|-1-------5-4-|
    g|---------9---------|--------8--------|-0-----2-----|
    D|-----------9-------|----------9------|-------------|
    A|-------------------|-----------------|-3-----2-----|
    E|---0-0---------0---|-7--7----------7-|-------------|
    
                         Rapido             Rapido
    e|-0-----0---|---7---------7-----|-----------------|
    b|-0-----0---|-8-----8---------8-|-10---7-----10---|
    g|-0---0-----|---------9---------|--------8--------|
    D|-----2---2-|-----------9-------|----------9------|
    A|-----2-----|-------------------|-----------------|
    E|-0-3-------|---0-0---------0---|-7--7----------7-|
    
                     Verso
    e|-3-2-0-2-----0---0-1-0-|-1-0---0---|-----------|
    b|-1-------5-4-0-3-------|-3---3-0-3-|-1---------|
    g|-0-----2-----0---------|-2-----1---|-4---------|
    D|-------------2---------|-0-----2---|-2-------2-|
    
  • ALFONSINA Y EL MAR (solo por Cesar Amaro)
    
    e|-11h|12--8---12---9h|10--7--10---7h|8--7h6-7-----------------|
    B|----|-----10--------|-----9--------|10-------10-9/10--------4|
    G|----|-------9-------|------9-------|8------7------7---5h4-5--|
    D|----|---------------|--------------|-------------------------|
    A|----|0--------------|7---------7---|8-------------0----------|
    E|----|-----------0---|--------------|-------0-----------------|
    
    e|-0-0---0-----|-------------|---------|-------/3h5h6h5h|6-5h4-5--
    B|----1------2h|3-3h0--3---0h|1--0--0--|----------------|3-----2--
    G|-----2-------|-----1-------|2---3-2--|-2--------------|0-----0--
    D|------2------|------2------|1-----0--|---2------------|-------4-
    A|-0-----------|2------------|---------|-0--3-0---------|------0--
    E|---------0---|---------0---|1-----0--|----------------|---------
    
    e|-3h|1--------0h1h0h|1-0--0-----|----------------|-------------|
    B|---|5-------3------|---4-----3/|1---------0h1h0h|1-—0h1-3---3-|
    G|---|---------------|2----1--
  • +
    ¡Colabora con nosotros!
    Envíanos tu versión de esta canción

Alfonsina y el mar Lyrics
Por la blanda arena que lame al mar
Su pequeña huella no vuelve más
Y un sendero solo, de pena y silencio llegó
Hasta el agua profunda
Y un sendero solo de penas puras llegó
Hasta la espuma
Sabe Dios que angustia te acompañó
qué dolores viejos calló tu voz
para recostarte arrullada en el canto
de las caracolas marinas
la canción que canta en el fondo oscuro del mar
la caracola
Te vas Alfonsina con tu soledad
¿Que poemas nuevos fuiste a buscar?
Una voz antigua de viento y de mar
Te requiebra el alma y la está llevando
Y te vas
Hacia allá como en sueños
Dormida Alfonsina
Vestida de mar
Cinco sirenitas te llevarán
por caminos de algas y de coral
y fosforescentes caballos marinos harán
una ronda a tu lado.
Y los habitantes del agua van a nadar
pronto a tu lado.
Bájame la lámpara un poco más
déjame que duerma, nodriza en paz
y si llama él no le digas que estoy,
dile que Alfonsina no vuelve.
y si llama él no le digas nunca que estoy,
di que me he ido.
Este fue el arreglo para alguei a quien acompañé.
Espero les guste.
Carlos Muñoz S.




[Alfonsina y el mar acordes][Alfonsina y el mar cifra]
© LaCuerda.net · legal notice · privacy · es · en · pt · contact us
DINAMICO