Guitar Chords » A »Angeles del Infierno » Al otro lado del silencio (Tab)

Al otro lado del silencio
Angeles del Infierno

Lyrics, Chords & Tabs for Guitar, Bass & Ukulele

  • Em                  C              D       Em        
    Cerré los ojos por un instante y te veo a ti      
                      C                D         SI7 
    Imágenes que no se han borrado y un pasado feliz
    Em                   C                     Em
    Sueños que nunca llegarán a hacerse realidad
                          C         D                SI7                                
    Tú nombre escrito en una pared con el viento hablará....
    CORO
      Em            C     D              Em       
    Que hay amigo al otro lado del silencio (bis)
    
    
                       C              D       Em                   
    Canciones que recuerdan lugares suenan para ti
                      C               D         SI7
    Palabras que nunca he olvidado y me hacen sentir
    Em                   C          D         Em
    Sueños que nunca llegarán a hacerse realidad
    C          D              SI7
    
  • B:----12----12--------8--8------10----10------5--5---------
    G:------12----12-------9--9-------11----11-----6--6--------
    D:---------------------------------------------------------
    A:---------------------------------------------------------
    E:---------------------------------------------------------
    
    SOLO
    
    E:---------------------------------------------------------
    B:--4/5-7-8-(10)-8-7^-5-7-8-7-3-5--------------------------
    G:---------------------------------------------------------
    D:---------------------------------------------------------
    A:---------------------------------------------------------
    E:---------------------------------------------------------
    
    E:---------------------------------------------------------
    B:--4/5-7-8-(10)-8-7^-5-7-8-7-8-10-(12^)-------------------
    G:---------------------------------------------------------
    D:---------------------------------------------------------
    A:---------------------------------------------------------
    
  • e|-12----12----10----8---8---8---10----10----10----7---7---7----------
    B|---12----12----10---8---8---8----10----10----10---7---7---7---------
    G|-----12----12--------9---9---------11----11--------8---8------------
    D|--------------------------------------------------------------------
    A|--------------------------------------------------------------------
    E|--------------------------------------------------------------------
    
    Luego entra la guitarra 2:
    
    e|-------------------5----------------------------------------------5-----------
    B|--0--5--5--5--7--8-----8--7--5--7--8---7-----5--0--5--5--5--7--8-----8--7--5--
    G|-------------------------------------7----------------------------------------
    D|------------------------------------------------------------------------------
    A|------------------------------------------------------------------------------
    E|------------------------------------------------------------------------------
    
    e|--------------5--5^7----
    B|--7--8--7--8------------
    G|------------------------
    D|------------------------
    
  •      E5     D5     C5     B5     A5
    e|---X------X------X------X------X------------------------------------
    B|---X------X------X------X------X------------------------------------
    G|---9------7------5------4------2------------------------------------
    D|---9------7------5------4------2------------------------------------
    A|---7------5------3------2------0------------------------------------
    E|---X------X------X------X------X------------------------------------
    
    
    
    INTRO:
    
    e|-----------5--------------------------------------------5-----------
    B|--5--7--8-----8--7--5--7--8--7-----5--0--5--5--5--7--8-----8--7--5--
    G|--------------------------------7-----------------------------------
    D|--------------------------------------------------------------------
    A|--------------------------------------------------------------------
    E|--------------------------------------------------------------------
    
    e|--------------5--5^7----
    
  • e---0-0-0-2-3-5-3-2-0-2-3-2---0-----------------
    B-0-------------------------3-------------------
    G-----------------------------------------------
    D-----------------------------------------------
    A-----------------------------------------------
    E-----------------------------------------------
    
    
    e---0-0-0-2-3-5-3-2-0--2-3-2-3-5-7--------------
    B-0---------------------------------------------
    G-----------------------------------------------
    D-----------------------------------------------
    A-----------------------------------------------
    E-----------------------------------------------
    
    Luego siguen unos riffs dentro de la cancion
    
    e-13-----13-------13-|-9----9----9-|-11-----11-------11---|
    B---13------13-------|--9----9-----|---11------11---------|
    G-----13-------13----|---10---10---|-----12-------12------|
    
  • ESTUVE OBSERVANDO LOS TABS QUE EXISTEN DE ESTA ROLA Y DECIDI PONER MI VERSION.
    
    INTRO:
    
    e[--12-----12----12----|---10-----10-----10---|-12-----12------12-----|
    B[----12-----12-----12-|-----10-----10-----10-|---12-----12------12---|
    G[------12-----12------|-------11-----11------|-----12-----12---------|
    D[---------------------|----------------------|-----------------------|
    A[---------------------|----------------------|-----------------------|
    E[---------------------|----------------------|-----------------------|
    
    Y ASI SE REPITE SEGUN LA CANCION
    
    
    
    DESPUES MIENTRAS ESO SE TOCA, ENTRA LA GUITARRA ELECTRICA CON EL DISTOR Y ESTO ES LO QUE SE TOCA:
    
    e[------------------------|-------------|-----------------------------
    B[-----------8-10-8-------|----8-7------|-----------8-10-8------------
    G[--9~--9--11--------7-9~-|-11------7-9~|--9~-9--11--------11-9~------
    D[------------------------|-------------|-9---------------------------
    A[------------------------|------------
  • Colavoracion de Manuel de Jeusu Guel
    Dudas o comentariso msn iron_maiden234@hotmail.com
    
    
    Empiezas a tacoar en el coro
    
    Coro:
    G|-------------------------7--p9---7------------------------------------------------|
    D|------------------------------------9---7-----------------------------------------|
    A|---7-----5----3---5------------------------10------7---5--------3--------2------0-|
    E|------------------------------------------------------------------------------3---|
    
    
    Despues del coro
    
    G|---------------------------------------------------|
    D|--------------9(*)------------4--5--7--5--4--------|
    A|---7-----7-7-------5-----5-5-----------------5--7--|
    E|------7---------------5----------------------------|
    *= dejas que suene
    
    
    verso:
    
    G|-----------------------------------------------------------|
    D|-----------------------------------------------------------|
    A|---7---5--3--2--3--5--5--7----7---5--3--2--3--5----3----2--|
    E|-------------------------------------------
  • +
    ¡Colabora con nosotros!
    Envíanos tu versión de esta canción

Al otro lado del silencio Lyrics
Cerré los ojos por un instante y te veo a ti
Imágenes que no se han borrado y un pasado feliz
Sueños que nunca llegarán a hacerse realidad
Tú nombre escrito en una pared con el viento hablará....
Que hay amigo al otro lado del silencio (bis)
Canciones que recuerdan lugares suenan para ti
Palabras que nunca he olvidado y me hacen sentir
Sueños que nunca llegarán a hacerse realidad
Tú nombre escrito en una pared con el viento hablará....




[Al otro lado del silencio acordes][Al otro lado del silencio cifra]
© LaCuerda.net · legal notice · privacy · es · en · pt · contact us
DINAMICO