Guitar Chords » A »Angela Aguilar » La Llorona (Tab)

La Llorona
Angela Aguilar

Lyrics, Chords & Tabs for Guitar, Bass & Ukulele

  • Intro: Gm  Cm  Gm  D
    
    Gm                      Cm
    Salías de un templo un día, llorona
    Gm                 D
    Cuando al pasar yo te vi
    Gm                Cm
    Salías de un templo un día, llorona
    Gm            D
    Cuando al pasar yo te vi
    Gm                  F
    Hermoso huipil llevabas, llorona
       D#          D
    Que la virgen, te creí
       Gm                 Cm
    Hermoso huipil llevabas, llorona
      D#          D
    Que la virgen, te creí
     
    
    
  • E----------2-3-2-3--|-2-3-2-3--|----------------|
    B--------3---------4|---------3|-4-3-----3------|
    G--2-3-5------------|----------|-----5-3---5-3-2|
    D-5-----------------|----------|----------------|
    A-------------------|----------|----------------|
    M-------------------|----------|----------------|
    
             (X2)    (X2)     (X2)
    
    E---5-|-6-8-6-|-5-6-5-|-3-5-3--|-2-3-2--|
    B--8-8|------8|------6|-------4|-------3|
    G-7---|-------|-------|--------|--------|
    D-----|-------|-------|--------|--------|
    A-----|-------|-------|--------|--------|
    E-----|-------|-------|--------|--------|
    
    
                     (X2)        (X2)        (X2)
    
    E-----------|-10-10-------|-8-8-------|-6-6----|-5-5-----|
    
  • +
    ¡Colabora con nosotros!
    Envíanos tu versión de esta canción
  • Tutorial
    HD
    Como tocar la Llorona en Guitarra solista fingerstyle
    17:33

La Llorona Lyrics
Salías de un templo un día, llorona
Cuando al pasar yo te vi
Salías de un templo un día, llorona
Cuando al pasar yo te vi
Hermoso huipil llevabas, llorona
Que la virgen, te creí
Hermoso huipil llevabas, llorona
Que la virgen, te creí
 
Ay de mi llorona, Llorona, Llorona
De un campo lirio
Ay de mi llorona, llorona, llorona
De un campo lirio
El que no sabe de amores llorona
No sabe lo que es martirio
El que no sabe de amores llorona
No sabe lo que es martirio
No se… que tienen las flores Llorona
Las flores de un camposanto
No se… que tienen las flores Llorona
Las flores de un camposanto
Que cuando las mueve el viento Llorona
Parece. que está llorando
Que cuando las mueve el viento Llorona
Parece que está llorando
Ay de mi Llorona, Llorona, Llorona
Llévame al río
Ay de mi Llorona Llorona Llorona
Llévame al río
Tápame con tu rebozo Llorona
Porque me muero del frío
Tápame con tu rebozo Llorona
Porque me muero del frío
 

La Llorona Video
[watch more videos]




[La Llorona acordes][La Llorona cifra]
© LaCuerda.net · legal notice · privacy · es · en · pt · contact us
DINAMICO