Guitar Chords » A »Andrés de León » Sigues siendo tu (Tab)

Sigues siendo tu
Andrés de León

Lyrics, Chords & Tabs for Guitar, Bass & Ukulele

  • E||------------3--------|------------3--------|--7------5------0----|
    B||-------1-------------|-------3-------------|---------------------|
    G||--0---------0--------|--0---------0--------|---------------------|
    D||---------------------|---------------------|--9------7------2----|
    A||--3------------------|---------------------|---------------------|
    E||---------------------|--3------------------|---------------------|
    
    
    
    E||--3------1-----------|---------------------|---------------------|
    B||----------------1----|--1------0------3----|---------------------|
    G||---------------------|---------------------|---------------------|
    D||--5------3-----------|---------------------|---------------------|
    A||----------------3----|--3------2------5----|---------------------|
    E||---------------------|---------------------|---------------------|
    
    ----------Estrofa I-----------
    
             DO
    Sigues siendo tu
    
  • E||------------3--------|------------3--------|--7------5------0----|
    B||-------1-------------|-------3-------------|---------------------|
    G||--0---------0--------|--0---------0--------|---------------------|
    D||---------------------|---------------------|--9------7------2----|
    A||--3------------------|---------------------|---------------------|
    E||---------------------|--3------------------|---------------------|
    
    
    E||--3------1-----------|---------------------|---------------------|
    B||----------------1----|--1------0------3----|---------------------|
    G||---------------------|---------------------|---------------------|
    D||--5------3-----------|---------------------|---------------------|
    A||----------------3----|--3------2------5----|---------------------|
    E||---------------------|---------------------|---------------------|
    
    ----------Estrofa I-----------
    
             DO
    Sigues siendo tu
       SOL
    
  • +
    ¡Colabora con nosotros!
    Envíanos tu versión de esta canción

Sigues siendo tu Lyrics
Sigues siendo tu
la unica en mi vida
Mi refugio mi salida
La que cura mis heridas
Sigues siendo tu
Mi eterna compañia
La fuerza que me guia
Cuando no hay un buen dia.
Sigues siendo tú,-sólo-tú
Aun sigues siendo tu
La que me enseño amar
Aun sigues siendo tu
Con quien quiero despertar hasta el final
Aun sigues siendo tu
Todo lo que yo soñe
Y que nunca imagine amar asi
Ante dios te juro, sigues siendo tu
Sigues siendo tu
Mi amante fiel, mi amiga
A quien le entregaria
Sin pensar toda mi vida
Sigues siendo tu
Perfecta sin medida
Mi luz mi ser mi vida
A quien siempre amaria
Aun sigues siendo tu
La que me enseño amar
Aun sigues siendo tu
Con quien quiero despertar hasta el final
Aun sigues siendo tu
Todo lo que yo soñe
Y que nunca imagine amar asi
Ante dios te juro, sigues siendo tu
Aun sigues siendo tu cada nuevo amanecer
Aun sigues siendo cada parte de mi ser
Sigues siendo tu a quien amare
Una y mil veces, volveria a apostar por ti
Sin ti no habria nada no sabria vivir
Siempre has sido tu...oohh
Aun sigues siendo tu
La que me enseño amar
Aun sigues siendo tu
Con quien quiero despertar hasta el final
Aun sigues siendo tu
Todo lo que yo soñe
Y que nunca imagine amar asi
Ante dios te juro,
Ante Dios te juro,
Ante Dios te juro:
Sigues siendo tu
Esta canción es dedicada a la mujer que me demostró que es el amor
Belén, esto es para tí




[Sigues siendo tu acordes][Sigues siendo tu cifra]
© LaCuerda.net · legal notice · privacy · es · en · pt · contact us
DINAMICO