Guitar Chords » A »Andrés Cepeda » Me Voy (Tab)

Me Voy
Andrés Cepeda

Lyrics, Chords & Tabs for Guitar, Bass & Ukulele

  • Intro: Em Cmaj7 Am7 B7 x4
    
    --Versos--
    
    Al mismo tiempo que pisamos B7,
    rápidamente hacemos el "desliz" 1|-2/3--3-2-|
         B7            Em*
    1|----2/3--3-2------0---------
    2|----0-------------0---------
    3|----2-------------0---------
    4|----1-------------0---------
    5|----2-------------2---------
    6|----x-------------0---------
    
    Em Cmaj7  Am7      B7        Em    Cmaj7
    Me voy,    dejando todo lo que te di,
    Am7        B7       Em    Cmaj7
      me voy dejando la vida aquí,
     Am7       B7       Em  Cmaj7  Am7  B7
    me voy llorando en calma...
    
  • Em C Am B7 x4
    
    Em   C Am       B7       Em     C Am
     Me voy dejando todo lo que te di
              B7        Em     C
     me voy dejando la vida aqui
          Am    B7      Em  C Am B7
     me voy llorando en calma
    
    Em   C Am        B7          Em    C Am
     Me voy estoy borracho y voy a decir
               B7       Em      C
     que nunca pude ser lo que fui
           Am     B7      Em  C Am B7
     que estoy pagando un karma
    
    
    Am                    D
     Pero no quiero que olvides
            G     D/F#         Em
    
  •   Em    C    Am    B7    Em      C    Am     B7
    E-0------0-----0--------/-0*-0-----0----0-------
    B---0-----1--1--1--3-1--/-0---0--1--1-1--1---3--
    G-----0------2-----2-2--/-0------0----2------2--  X2
    D-----------------------/-2----------------1----
    A-------3----0----2-----/-2------3----0---2-----
    E-0---------------------/-0---------------------
    
    *es un rasgueo hacia abajo, no todas las notas al mismo tiempo.
    
    
    
    
    El solo en la mitad de la canción es así:
    
    E-----3---2-0---------------------------------------------------
    B-0-0---4-----0-3-1-1--0---------------------7-8-7-10-7-8-10-----
    G--------------------2-----2-5-4-4-3h4----9-8-9------------------
    D------------------------4---------------------------------------
    A---------------------------------------------------------------
    
  • +
    ¡Colabora con nosotros!
    Envíanos tu versión de esta canción

Me Voy Lyrics
Me voy dejando todo lo que te di
me voy dejando la vida aqui
me voy llorando en calma
Me voy estoy borracho y voy a decir
que nunca pude ser lo que fui
que estoy pagando un karma
Pero no quiero que olvides
que yo te segui hasta el mar
y una cancion fue el amor que nunca hicimos
Me voy porque nunca viste
que la luna era mi alma cuando yo
te la regalaba
Me voy te ame con todo pero no hay más
mi corazón tiene que parar
me voy para salvarme
Me voy si en tus bolsillos ya no hay lugar
para el amor que te quise dar
no volveré a besarte
Pero no quiero que olvides
que yo te segui hasta el mar
y una cancion fue el amor que nunca hicimos
Me voy porque nunca viste
que la luna era mi alma cuando yo
te la regalaba
Te la regalaba te la regalaba
.... . ..... .......
Te di la luna la luna te di
Te di la luna la luna te di
Y yo te la regalaba y tu nunca me llamabas
y yo siempre te buscaba
pero tu te me escapabas
de algun modo te la daba...
te la regalabaaa..




[Me Voy acordes][Me Voy cifra]
© LaCuerda.net · legal notice · privacy · es · en · pt · contact us
DINAMICO