Guitar Chords » A »Alvaro Torres » Mi amor por tí (Tab)

Mi amor por tí
Alvaro Torres

Lyrics, Chords & Tabs for Guitar, Bass & Ukulele

  • INTRO: C  Am  F  G (*)
    
    (*)
    e----------8-6-------8-6--4-3-----------8-6-------8-6--4-3--6/8--
    B-6------6--------------------6-------6--------------------------
    G---8-7----------7-8-------------8-7----------7-8----------------
    D----------------------------------------------------------------
    A----------------------------------------------------------------
    E----------------------------------------------------------------
    
                C       Am
    (Álvaro)Mi amor por ti
         F               G       C      Am
    es como un sol que brilla dentro de mí
        F         G
    e ilumina mi vida.
    
                  A       F#m
    (Marisela)Mi amor por ti
         D         E      A    F#m
    
  • e|----------10-8---------------------10-8-|
    B|-8------8----------------8-10-8-10------|
    G|--10-9v--------9-10-9-10----------------|
    D|----------------------------------------|
    A|----------------------------------------|
    E|----------------------------------------|
    
    e|-------------------------10-8-------10-8-15/17h15-|
    B|-8---------------------8--------------------------|
    G|--10-9br(10)(9)(10)(9)---------9-10---------------|
    D|--------------------------------------------------|
    A|--------------------------------------------------|
    E|--------------------------------------------------|
    
    
    
          C       Am   Dm               G
    Mi amor por ti, es cómo un sol que brilla
          C   Am   Dm        E
    dentro de mí e ilumina mi vida.
    
  • +
    ¡Colabora con nosotros!
    Envíanos tu versión de esta canción

Mi amor por tí Lyrics
(*)
(Álvaro)Mi amor por ti
es como un sol que brilla dentro de mí
e ilumina mi vida.
(Marisela)Mi amor por ti
es nuevo cada día y amarte así
es mi única alegría.
(Álvaro)Mi amor por ti
es claro como el agua y no se vivir
cuando tú me faltas.
(Juntos)Mi amor por ti
es más bello que lo bello
y más verdad que la verdad
más inmenso que lo inmenso
y mucho más que más.
(Juntos)Mi amor por ti
es tan firme y es tan fiel
nada lo puede derrumbar
este amor es para siempre
es un amor sin final.
(*)
(Álvaro)Mi amor por ti
me llena de esperanza pues junto a ti
la vida no es mala.
(Marisela)Mi amor por ti
no solo son palabras lo siento aquí
tan dentro de mi alma.
(Álvaro)Mi amor por ti
es tanto que no encuentro como decir
todo lo que siento.
(Rep. Coro 2 veces)




[Mi amor por tí acordes][Mi amor por tí cifra]
© LaCuerda.net · legal notice · privacy · es · en · pt · contact us
DINAMICO