Guitar Chords » A »Almendra » Muchacha ojos de papel (Tab)

Muchacha ojos de papel
Almendra

Lyrics, Chords & Tabs for Guitar, Bass & Ukulele

  •                        C          G
    e|----0----0----0----------------333-|
    B|---0----0----0----0--1--0----------|
    G|--0----0----0----0---0--0----------|
    D|-2----1----0---------2-------------|
    A|----------------4----3--2------222-|
    E|---------------------------0-3-333-|
    
        C    Em7       Am7   D  C  G  Arreglo
    e|-----------------------2--0--3---------|
    B|----1----3----3---1----3--1--0---0h2p0-|
    G|---0----0----0----0----2--0--0---------|
    D|--2----0----0-----2----0--2--0---------|
    A|-3----2----1----0---------3--2---------|
    E|-----------------------------3---------|
    
        D  C  G
    e|--2--3--3---------|
    B|--3--1--0---------|
    G|--2--0--0---------|
    
  • e.----------------------| C - Bm6 - G -0/3-3-----------------------| D - C - G
    B.-3/5----3/4---3----2--|             -----------------------------|
    G.----4------4----4----4|             -0---------------------------|
    D.-0/2----0/1---0----4--|             --------0/3-3---0/2-2---0/1-1|
    A.----------------------|             -----------------------------|
    E.----------------------|             -----------------------------|
    
    G   D/F#   Em7                    Am7              D       Dsus4 D
      Muchacha ojos de papel, ¿adónde vas?, quédate hasta el alba;
    G   D/F#   Em7                      Am7             D       Dsus4 D
      muchacha pequeños pies, no corras más, quédate hasta el alba.
    Em    Em/maj7       Em7*         Em6
      Sueña un sueño despacito entre mis manos
    C               Am7         D           Dsus4 D
      hasta que por la ventana suba el sol;
    G   D/F#   Em                       Am7  D               G
      muchacha piel de rayón, no corras más,    tu tiempo es hoy.
                  C      Em/G        Cm7    G
      Y no hables más, muchacha corazón de tiza,
             C    Em/G         Am7       G
    
  •   Em   Emaj7 Em7  Em6   G
    |-----------------------3-3---3---3|
    |-3/5---3/4--3-0---2-1--3-3---3---3|
    |-----------------------0-0---0---3|
    |-0/2---0/1--0----------------0---0|
    |--------------2---4-3------2---2--|
    |---------------------------3---3--|
    
    
      G    D/F#        Em      Em7      Am7                  D
         Muchacha ojos de papel Adonde vas Quédate hasta el alba
    
    Muchacha pequeños pies
    No corras más
    Quédate hasta el alba.
    
      Em      Em(m7)     Em7            Em6
     Sueña un sueño despacito entre mis manos
    
    C         Em7             Am7      D
    
  • e.-------------------0-3-0-3-|-0h3----------------0-3-0-3--0-3-0-3-|
    B.-----0-----0--0--0-1-3-1-3-|-----0---0---0---0--1-3-1-3--1-3-1-3-|
    G.----0-----0--------0-0-0-0-|----0---0---0----0--0-0-0-0--0-0-0-0-|
    D.-0h2---0h1---0-----2-0-2-0-|--------------------2-0-2-0--2-0-2-0-|
    A.----------------4--3-2-0-2-|--3----2---1---0----3-2-0-2--3-2-0-2-|
    E.-------------------------3-|--------------------------3--------3-|
    
    G   D/F#   Em7                    Am7              D
      Muchacha ojos de papel, ¿adónde vas?, quédate hasta el alba;
    G   D/F#   Em7                      Am7             D
      muchacha pequeños pies, no corras más, quédate hasta el alba.
    Em    Em/maj7       Em7*         Em6
      Sueña un sueño despacito entre mis manos
    C           G/B            Am7     D
      hasta que por la ventana suba el sol;
    G   D/F#   Em                       Am7  D               G
      muchacha piel de rayón, no corras más,    tu tiempo es hoy.
                  C      G/B        Bb     G
      Y no hables más, muchacha corazón de tiza,
             C    G/B         Am7       G
    
  •   Em   Emaj7 Em7  Em6   G
    |-----------------------3-3---3---3|
    |-3/5---3/4--3-0---2-1--3-3---3---3|
    |-----------------------0-0---0---3|
    |-0/2---0/1--0----------------0---0|
    |--------------2---4-3------2---2--|
    |---------------------------3---3--|
    
    
    
    
      G    D/F#        Em      Em7      Asus4       D
         Muchacha ojos de papel Adonde vas Quedate hasta el alba
    |-------------0-2--3--2-0--|---0-0----|-0-0-0---------------|
    |----0-3-----------3-------|-3------3-|---------3------1-0--|
    |---0--2-----------0-------|--------0-|---------2-----------|
    |--0-----------------------|--------2-|---------0-----------|
    |--------------------------|--------0-|---------------------|
    |-3----2-----------0-----0-|----------|---------------------|
    
    
  •   Em   Emaj7 Em7  Em6   G
    |--------------------------3-3-0^3--3---3|
    |-3/5---3/4--3-0---2----1--3-3------3---3|
    |--------------------0-----0-0------0---3|
    |-0/2---0/1--0----------------------0---0|
    |--------------2---4-2--3---------2---2--|
    |---------------------------------3---3--|
    
    
    |-0^3----------------------0-0^3-3----0-0^3--3-|
    |--------------------------1-----3----1------3-|
    |-----0-----0-----0---0----0-----0----0------0-|
    |---------------------0--0-2-----0--0-2------0-|
    |-----3-0^2-2-0^1-1-0------3-----2----3------2-|
    |--------------------------------3-----------3-|
    
    
    
    
      G    D/F#        Em      Em7      Asus4       D
    
  •       ARMÓNICA:DO (C)
    
    5 6 (6) (7) 7 (7) 6
    5 6 (6) 6 (6) (6) (6) 6 (5) 5 5
    5 6 (6) 6 (6) (6) (6) 6 (5) 5 5
    
    4 4 4 4 4 4 4 4 4 4 4 4
    4 4 4 4 4 4 4 4 (4) 5 (5)
    5 6 (6) (7) 7 (7) 6
    5 6 (6) 6 (5) (5) (5) 5 (4) 4
    
    6 (6) (7) 7 (7) (6) 6
    5 6 (6) 6 (5) 5
    (4) 5 (5) 6 5 (4)
    4 (4) 5 (5) (4) 4
    SE REPITE
    
    REPITE UNA VEZ LA ESTROFA N°1
    
    REPITE UNA VEZ LA ESTROFA N°2
    
    REPITE UNA VEZ LA ESTROFA N°3
    
    
    CUALQUIER PREGUNTA ESCRIBIR A:
    gusti_87@hotmail.com
    
    Gustavo Castellucci     Vamo´ los piojos va´ vamo´ los piojos
  • +
    ¡Colabora con nosotros!
    Envíanos tu versión de esta canción

Muchacha ojos de papel Lyrics
Muchacha ojos de papel Adonde vas Quédate hasta el alba
Muchacha pequeños pies
No corras más
Quédate hasta el alba.
Sueña un sueño despacito entre mis manos
Hasta que por la ventana suba el sol
Muchacha piel de rayón No corras mas Tu tiempo es hoy
Y no hables más muchacha Corazón de tiza
Cuando todos duerman Te robare un color
Y no hables más muchacha
Corazón de tiza
Cuando todos duerman
Te robare un color
Muchacha voz de gorrión
Adonde vas
Quédate hasta el día
Muchacha pechos de miel
No corras más
Quédate hasta el día
Duerme un poco y yo entre tanto construiré
Un castillo con tu vientre hasta que el sol
Muchacha te hagas reír
Hasta llorar
Hasta llorar
Y no hables más muchacha
Corazón de tiza
Cuando todos duerman
Te robare un color
Y no hables más muchacha
Corazón de tiza
Cuando todos duerman
Te robare un color
Asi son los acordes que uso para la parte de
"sueña un sueño despacito..."




[Muchacha ojos de papel acordes][Muchacha ojos de papel cifra]
© LaCuerda.net · legal notice · privacy · es · en · pt · contact us
DINAMICO