Guitar Chords » A »Alex Ubago » Aunque no te pueda ver (Tab)

Aunque no te pueda ver
Alex Ubago

Lyrics, Chords & Tabs for Guitar, Bass & Ukulele

  • F#m        G#m       A/E
    e--0---    e--0---   e--0
    B--0---    B--0---   B--0
    G--2---    G--4---   G--2
    D--4---    D--6---   D--2
    A--4---    A--6---   A--0
    E--x---    E--x---   E--0
    
    Intro: E B A B   E B A
    
    E                  B            A
    Si ayer tuviste un día gris, tranquila,
               B           E
    yo haré canciones para ver
                      B        A/E
    si así consigo hacerte sonreír.
    
    E                     B        A
    Si lo que quieres es huir, camina,
               B            C#m
    
  •       E                       G#m     C#m                 A          B           A
    e|----4-4-4-4-4-4--4-2-0-2-4---7-7-7-7-7-7-4-11p12-11-----------------------------|
    B|-----------------------------------------------------12-9----------9-7-5-7-5-4-2|
    G|--4-------------------------------------------------------9-11-6-8--------------|
    D|--------------------------------------------------------------------------------|
    A|--------------------------------------------------------------------------------|
    E|--------------------------------------------------------------------------------|
    
     
    E                  B          A
    Si ayer tuviste un día gris, tranquila,
               B           E
    yo haré canciones para ver
                      B      A
    si así consigo hacerte sonreír.
    E                     B      A
    Si lo que quieres es huir, camina,
               B            C#m
    yo haré canciones para ver
                      B           A
    
  • MI                 SOL#m         LA
    si ayer tuviste un dia gris, tranquila
            SI             MI
    yo haré canciones para ver,
    MI              SOL#m     LA
    si así consigo hacerte sonreír.
    
    
    MI                SOL#m      LA
    si lo que quieres es huír, camina
            SI             MI
    yo hare canciones para ver
    MI               SOL#m      LA
    si así consigo fuerzas pa' vivir.
    
    
    
    MI             SOL#m       LA
    no tengo más motivos para darte
              SI          MI
    
  • e|---19---0--------------16-----19-17-16-14-12------11-11-12---------12-|
    B|-17--19-22-21-19-17-19---19------------------12---12-------12----12---|
    G|--------21---------------16------------------14---11----------13------|
    D|--------21---------------16------------------11---13------------------|
    A|-------------------------18-------------------------------------------|
    E|----------------------------------------------------------------------|
    
    e|-16-16-14---4--5------------------------------------------------------|
    B|------------4--5------------------------------------------------------|
    G|------------4--6------------------------------------------------------|
    D|------------6--7------------------------------------------------------|
    A|------------6--7------------------------------------------------------|
    E|------------4--5------------------------------------------------------|
    
    Guitarra
    e|------------0-------0-4-------------------------|
    B|----4-----4---0---0------4-2--0-4-------------2-|
    G|----4-4---------4-----------------2--1-------2--|
    D|----4---4------------------------------4-2--2---|
    A|-------------------------------------------0----|
    
  • Intro: E - B - A - B - E - G#m - A
    
    Riff I
    Esta es la parte del piano si la quieren tocar claro..
    e|----19----17-16-----------16-----19-17-16--------|
    B|-17----19-------19-17.-19----19.----------19-17.-|
    G|-------------------------------------------------|
    D|-------------------------------------------------|
    A|-------------------------------------------------|
    E|-------------------------------------------------|
    
    Acá Toca la Guitarra…
                               |--A--|
    e|-2----2-4------4--------------------------0--|
    B|---4------5--7---4-2-2/4.---4------------2---|
    G|----4------4--------------4---2-1-------2----|
    D|----------------------------------4-2--2-----|
    A|-2------7-----------------------------0------|
    E|---------------------------------------------|
    
    
  • Intro: E - B - A - B - E - G#m - A
    
    *Esta parte es la del piano, por si quieren tocarlo*
    e|----19----17-16-----------16-----19-17-16--------|
    B|-17----19-------19-17.-19----19.----------19-17.-|
    G|-------------------------------------------------|
    D|-------------------------------------------------|
    A|-------------------------------------------------|
    E|-------------------------------------------------|
    
    *Esta es la de la guitarra*
                                   |--A--|
    e|-2----2-4------4--------------------------0--|
    B|---4------5--7---4-2-2/4.---4------------2---|
    G|----4------4--------------4---2-1-------2----|
    D|----------------------------------4-2--2-----|
    A|-2------7-----------------------------0------|
    E|---------------------------------------------|
    
    
    
  • e-----7-----5-4--------------4---------7--5--4-------------------------
    b-5-----7---------7-5----7-----7------------------7--5-----------------
    g----------------------------------------------------------------------
    D----------------------------------------------------------------------
    A----------------------------------------------------------------------
    E----------------------------------------------------------------------
    
    e---2------2---4--------4------------------------------
    b-----4-----------5---7--4--2/4---2-4---------------2--
    g-------4-----------4-----------------4---2-1-------2--
    D---------------------------------------------4-----2--
    A---2----------2------------------------------------0--
    E------------------------------------------------------
    I
    Si ayer tuviste un día       gris       tranquila yo are
    e--------------4--2---0---------------2---------0----------------|
    b----------5-------------4---------4------5-4---2----------------|
    g-------4----------------4------4---------------2----------------|
    D--2--------------------------------------------2----------------|
    A---------------------------2-------------------0----------------|
    
  • AKA EMPIEZO OJALA ME ENTIENDAN TODA ESTA WEBADA
    AHH VERDAD.. TENGO KE ESCRIBIR TODO FEELING
    TONS SERIA ASI..
    
    AY PLIS OJALA ME ENTIENDAN, LO HICE KON MUCHO AMOR
    PARA TODOS USTEDES =)
    
    |  |   | |   |  |  |   | |   | |   |  |
    |  |   | |   |  |  |   | |   | |   |  |
    |  |DO#| |MIb|  |  |FA#| |LAb| |SIb|  |
    |  |_ _| |_ _|  |  |_ _| |_ _| |_ _|  |
    |    |     |    |    |     |     |    |
    |    |     |    |    |     |     |    |
    |    |     |    |    |     |     |    |
    | DO | RE  | MI | FA | SOL | LA  | SI |
    |____|_____|____|____|_____|_____|____|
    
    MINUTO 0:00 (PIANO).. -> 'TONO A'
    
    MI - SI - FA# - LA - LAb - FA# - MI - FA# - LAb - FA#
    
    SI - LA - LAB - FA# - MI
    
    MINUTO 0:08 (GUITARRA)
    e---2------2---4--------4------------------------------
    b-----4-----------5---7--4--2/4---2-4---------------2--
    g-------4-----------4-----------------4---2-1-------2--
    D---------------------------------------------4-----2--
    A---2----------2------------------------------------0--
    E------
  • +
    ¡Colabora con nosotros!
    Envíanos tu versión de esta canción
  • Tutorial
    HD
    Como tocar Aunque No te PUEDA VER de Alex UBAGO en guitarra
    1:49
  • Tutorial
    HD
    Como tocar Aunque no te pueda ver en Guitarra (HD)
    Tutorial
    4:19

Aunque no te pueda ver Lyrics
Si ayer tuviste un día gris, tranquila,
yo haré canciones para ver
si así consigo hacerte sonreír.
Si lo que quieres es huir, camina,
yo haré canciones para ver
si así consigo fuerzas pa´ vivir.
No tengo más motivos para darte
que este miedo que me da
el no volver a verte nunca más.
ESTRIBILLO
Creo ver la lluvia caer,
en mi ventana te veo pero no está lloviendo,
no es más que un reflejo de mi pensamiento,
hoy te echo de menos...
Yo sólo quiero hacerte saber,
amiga estés donde estés
que si te falta el aliento yo te lo daré,
si te sientes sola, háblame,
que te estaré escuchando
aunque no te pueda ver,
aunque no te pueda ver...
De tantas cosas que perdí
diría que sólo guardo lo que fué,
mágico tiempo que nació un Abril.
Miradas tristes sobre mí
se anidan y se hacen parte de mi piel,
y ahora siempre llueve porque estoy sin ti.
si así consigo fuerzas pa´ vivir.
No tengo más motivos para darte
que este miedo que me da
el no volver a verte nunca más.
ESTRIBILLO
Creo ver la lluvia caer,
en mi ventana te veo pero no está lloviendo,
no es más que un reflejo de mi pensamiento,
hoy te echo de menos...
Yo sólo quiero hacerte saber,
amiga estés donde estés
que si te falta el aliento yo te lo daré,
si te sientes sola, háblame,
que te estaré escuchando
aunque no te pueda ver,
aunque no te pueda ver...

RoStro




[Aunque no te pueda ver acordes][Aunque no te pueda ver cifra]
© LaCuerda.net · legal notice · privacy · es · en · pt · contact us
DINAMICO