Guitar Chords » A »Alejandro Sanz » Mi soledad y yo (Tab)

Mi soledad y yo
Alejandro Sanz

Lyrics, Chords & Tabs for Guitar, Bass & Ukulele

  •       SOL#m    SOL#m7/FA#     MI   SI/RE#        DO#m                RE#
    e|-|----------|------------------|-------------------|-------------------|
    B|-|----------|-------2-4--2-----|--------2-4--2-----|--------2-4--2-----|
    G|-|--4-3-----|-1-3-4------------|--1-3-4---------1--|--1-3-4---------0--|
    D|-|-------1--|---------------2--|-------------------|-------------------|
    A|-|----------|------------------|-------------------|-------------------|
    E|-|----------|------------------|-------------------|-------------------|
    
          SOL#m    SOL#m7/FA#     MI   SI/RE#        DO#m           RE# FA#sus4 FA#
    e|-|----------|------------------|-------------------|-------------------|
    B|-|----------|-------2-4--2-----|--------2-4--2-----|--------2-4--2-----|
    G|-|--4-3-----|-1-3-4------------|--1-3-4---------1--|--1-3-4---------0--|
    D|-|-------1--|---------------2--|-------------------|-------------------|
    A|-|----------|------------------|-------------------|-------------------|
    E|-|----------|------------------|-------------------|-------------------|
    
           SI             FA#/LA#         SOL#m         SOL#m7/FA#
    Como estas? Que tal te va? Alli es de dia o es de noche?
     MI            RE#m   MI         FA#7
    Es bonita esa ciudad para ir de vacaciones?
    
  • A)
            C              G              Am
    Como estas? Que tal te va? Ahi es de dia o es de noche?
          F                   G
    Es bonita esa ciudad para ir de vaciones?
          C                 G            Am
    Y el hotel, era verdad que es tan romantico y lujoso?
            F                        G                   Am
    como en la publicidad, con esas playas de las fotos?
    
    (A)
    En Madrid esta lloviendo y todo sigue como siempre,
    solamente que no estas y el tiempo pasa lentamente.
    Estoy loco porque vuelvas. Hace tanto que te fuiste...
    No te iras a enamorar alli? Lo prometiste.
    
    (B)
    Am                        F
    Por favor cuando puedas, llamame.
                Dm                        G
    
  • (A)
            C              G              Am
    Como estas? Que tal te va? Ahi es de dia o es de noche? 
          F                   G
    Es bonita esa ciudad para ir de vaciones? 
          C                 G            Am
    Y el hotel, era verdad que es tan romantico y lujoso? 
            F                        G                   Am
    como en la publicidad, con esas playas de las fotos? 
    
    (A)
    En Madrid esta lloviendo y todo sigue como siempre, 
    solamente que no estas y el tiempo pasa lentamente. 
    Estoy loco porque vuelvas. Hace tanto que te fuiste... 
    No te iras a enamorar alli? Lo prometiste. 
    
    (B)
    Am                        F
    Por favor cuando puedas, llamame. 
                Dm                        G
    
  •   B-----------10h12--------------------10h12------------------
      G--(9)--9-----------------(10)--10-----------------(10)--10-
      D-----------------------0------------0------------0---------
      A-0---0-----0-----------------------------------------------
      E-----------------------------------------------------------
    
      E-------8h10--12-10--------
      B-10h12--------------9-----
      G--------------------------
      D-0------------------------
      A--------------------------
      E-------------0------------
    
    
      E-8---7-----------8h10--12---10------------8h10--12---10----
      B-----------10h12--------------------10h12------------------
      G--(9)--9-----------------(10)--10-----------------(10)--10-
      D-----------------------0------------0------------0---------
      A-0---0-----0-----------------------------------------------
      E-----------------------------------------------------------
    
  • Intro: [G#m      Emaj7      C#m      D#] X2      F#4      F#
    
          G#m                     Ebmaj7              C#m                 D#
    E|-|----------|------------------|-------------------|-------------------|
    B|-|----------|-------2-4--2-----|--------2-4--2-----|--------2-4--2-----|
    G|-|--4-3-----|-1-3-4------------|--1-3-4---------1--|--1-3-4---------0--|
    D|-|-------1--|---------------2--|-------------------|-------------------|
    A|-|----------|------------------|-------------------|-------------------|
    e|-|----------|------------------|-------------------|-------------------|
    
          G#m                     Ebmaj7              C#m                 D#     F#4  F#
    E|-|----------|------------------|-------------------|-------------------|
    B|-|----------|-------2-4--2-----|--------2-4--2-----|--------2-4--2-----|
    G|-|--4-3-----|-1-3-4------------|--1-3-4---------1--|--1-3-4---------0--|
    D|-|-------1--|---------------2--|-------------------|-------------------|
    A|-|----------|------------------|-------------------|-------------------|
    e|-|----------|------------------|-------------------|-------------------|
    
    Estrofa:
    
    
  •         C              G              Am
    Como estas? Que tal te va? Ahi es de dia o es de noche? 
          F                   G
    Es bonita esa ciudad para ir de vaciones? 
          C                 G            Am
    Y el hotel, era verdad que es tan romantico y lujoso? 
            F                        G                   Am
    como en la publicidad, con esas playas de las fotos? 
    
    
    En Madrid esta lloviendo y todo sigue como siempre, 
    solamente que no estas y el tiempo pasa lentamente. 
    Estoy loco porque vuelvas. Hace tanto que te fuiste... 
    No te iras a enamorar alli? Lo prometiste. 
    
    (B)
    Am                        F
    Por favor cuando puedas, llamame. 
                Dm                        G
    Que mi soledad y yo, sin ti no nos llevamos bien.  
    
  • e ---------------------------------------4--7p4--7p4--7p4--7--------
    B -------------------------------7bend-----------------------4/7vvv--
    G ------------------------/4--3--------------------------------------
    D -----4----4h6vvv---------------------------------------------------
    A --/6---6-----------------------------------------------------------
    E --------------------------------------------------------------------
    
    En esta sección estira la nota y toca sosteniendo la estirada
                       full       …….mantiene………            1/4
    e ------7-----9----9bend--9--9bend---9---9bend------9---8bend----------------
    B ---7----7----7----------------------------------------------9--7-----------
    G --------------------------------------------------------------------8---5--
    D ---------------------------------------------------------------------------
    A ---------------------------------------------------------------------------
    E ---------------------------------------------------------------------------
    
    e -----------------------------------------------------------------------
    B -----------------------------------------------------------------------
    G -------------------------------------------------------------13-15-16--
    D --------------------------11----11-13---11-13-14---13-14-16------------
    
  • +
    ¡Colabora con nosotros!
    Envíanos tu versión de esta canción

Mi soledad y yo Lyrics
Como estas? Que tal te va? Alli es de dia o es de noche?
Es bonita esa ciudad para ir de vacaciones?
Y el hotel, era verdad que es tan romantico y lujoso?
como en la publicidad, con esas playas de las fotos?
En Madrid esta lloviendo y todo sigue como siempre,
solamente que no estas y el tiempo pasa lentamente.
Estoy loco porque vuelvas. Hace tanto que te fuiste...
No te iras a enamorar alli? Lo prometiste.
Por favor cuando puedas, llamame.
Que mi soledad y yo, sin ti no nos llevamos bien.
Me paso el dia planeando
nuestro encuentro imaginario.
Te besare como nadie en este mundo te beso.
Te amare con el cuerpo y con la mente,
con la piel y el corazon.
Vuelve pronto te esperamos mi soledad y yo.
Te besare como nadie en este mundo te beso.
Te amare con el cuerpo y con la mente,
con la piel y el corazon.
Vuelve pronto te esperamos mi soledad y yo.
Ya no te entretengo mas, se que te esta esperando alguien.
Dile que debe hablar mas bajo al que ha dicho que no tardes.
dile que te cuide mucho. Me prometes que lo haras?
Y, ahora calmate, que el no note que has llorado.
Disimula que estas bien, como yo lo hago.
Y, mientras seguire pensando
en nuestro encuentro imaginario.
Te besare como nadie en este mundo te beso.
Te amare con el cuerpo y con la mente,
con la piel y el corazon.
Vuelve pronto te esperamos mi soledad y yo.
... como nadie en este mundo te beso.
Te amare
con la piel y el corazon.
... mi soledad y yo.
Te besare como nadie en este mundo te beso.
Te amare con el cuerpo y con la mente,
con la piel y el corazon.
Vuelve pronto te esperamos mi soledad y yo.




[Mi soledad y yo acordes][Mi soledad y yo cifra]
© LaCuerda.net · legal notice · privacy · es · en · pt · contact us
DINAMICO