Guitar Chords » A »Alejandra Guzmán » Llama por favor (Tab)

Llama por favor
Alejandra Guzmán

Lyrics, Chords & Tabs for Guitar, Bass & Ukulele

  • D                                       
    La luna es una naranja 
                      Bm              G D
    del color del carmín a medianoche
    D                  
    Descalza, tras la ventana, 
                        Bm                A7 Bm
    viendo el madrigal ir, golfo y canalla
    Bm                              
    Las motos, el rock’n’roll, 
                          F#m
    cuero, tachuelas y alcohol      
                                         
    Qué estás haciendo ahora, yo 
                       G
    intento que el corazón 
                                             
    Que es un gran muelle de acero 
                       D     A7   Bm
    no se me salga del pecho
    
  • D,B,C
    
    F
    La luna es una naranja
            Am          Dm              B C
    del color del carmín a medianoche
    F
    Descalza, tras la ventana,
             Am          Dm                B C
    viendo el madrigal ir, golfo y canalla
    Dm
    Las motos, el rock n’roll,
                          Am
    cuero, tachuelas y alcohol
    
    Qué estás haciendo ahora, yo
                       B
    intento que el corazón
    
    Que es un gran muelle de acero
    
  •      G                                 Em             C
    La luna es una naranja del color del carmin a media noche
        G                              Em
    descalza tras la ventana viendo el mar y la luz
                 C
    volvio el canalla
    
    
          Em                                         Bm
    las motos el rock and roll cueros tachuelas y alcohol
                                                 C
    que estas haciendo ahora yo y te toque el corazon
                                                       G
    que es un gran muelle de acero no seme salga del pecho
    
    
          Em                   Bm
    te necesito ya vez odio reconocer que necesito tener
                           C
    tu aliento para estar bien que no hay mejor alimento
    
  • e|-----3------2----------0--------------------3-------2------0--0-|
    b|-------5------3-----------1-------------------5-------3----1--3-|
    g|---------4------2-----------0------0------------4-------2--0--0-|
    D|-------------------------------0h2---2---------------------2--4-|  x2
    A|-----------------------------------------------------------3--5-|
    E|--0-----------------0------------------3-0-----------------3--5-|
    
    
    
    La luna es una naranja,  del color del carmín a medianoche
    
    e|------3-------------------------------0------------------------0-0-0-0|
    b|------3---3-----------------3---------0-------------1----------1-1-1-1|
    g|------0--0---------------2------------0---------------0--------0-0-0-0|
    D|------0--0------------0-------------2-------------2------2-----2-2-2-2|
    A|---3------------------------------------------0h3--------------3-3-3-3|
    E|-3----------------2--------------0-----------------------------3-3-3-3|
    
    
         Descalza, tras la ventana, viendo el madrigal ir, golfo y canalla
    
  • **Porfavor escuchenla para que toquen bien cuando caen
      las figuras de los versos
    
    SIMBOLOGIA:
    
    /= barrido de grave a agudo
    
    = barrido de agudo a grave
    
    h= hamer
    
    INTRO:
    
    g|------------|-------------|-------------|-------------|
    D|------------|-------------|-------------|-------------|
    A|------------|-------------|-------------|----3---5----|  x2
    E|----0-------|-------------|---3-0-------|-------------|
    
    *pura guitarra
    *Tienes que oirla para saber cuando entrar poque esta un poco
    a destiempo en:
    
    Te necesito ya vez...
    
    g|-12-11-9-----------|--------------|-9-7------------|-------------|
    D|---------9-7-------|--9--11-12----|-----10---------|-------------|
    A|-------------10-7--|--------------|--------10--7---|-------------|
    E|-------------------|--------------|--------------8-|--8-8/10-----|
    
    *otravez guitarra, hasta el segundo:
    
    CORO:
    
    Llama porfavor..
    
    g|---------------------|-------------------|---------------|----------|
    D|---------------------|----------0-2------|---------------|--
  • +
    ¡Colabora con nosotros!
    Envíanos tu versión de esta canción

Llama por favor Lyrics
La luna es una naranja
del color del carmín a medianoche
Descalza, tras la ventana,
viendo el madrigal ir, golfo y canalla
Las motos, el rock’n’roll,
cuero, tachuelas y alcohol

Qué estás haciendo ahora, yo
intento que el corazón

Que es un gran muelle de acero
no se me salga del pecho
Te necesito, ya ves, odio reconocer,
Que necesito tener tu aliento para estar bien
Que no hay mejor alimento
que el que me das con tus besos
Llama por favor, soy un cero a la izquierda,
Soy un globo sin gas, un barco en alta-mar,
sin patrón, a la deriva
Llama por favor, estoy tan indefensa
Me falta voluntad, no me puedo concentrar,
y no encuentro la salida, no
La radio con sus propuestas
para un mundo feliz me desconcierta
Me pasan por la cabeza
mil locuras que no tomo ni en cuenta
Y aunque me duela esta vez tengo que reconocer
Que necesito tener tu cuerpo para estar bien
Enamorada, perdida, mi mente te necesita




[Llama por favor acordes][Llama por favor cifra]
© LaCuerda.net · legal notice · privacy · es · en · pt · contact us
DINAMICO