Guitar Chords » A »Agrupación Marylin » Oh Marylin (Tab)

Oh Marylin
Agrupación Marylin

Lyrics, Chords & Tabs for Guitar, Bass & Ukulele

  • Am
    las noches me traen recuerdos,
    
    F
    de aquel amor que era mío
    
    Dm
    estando solo en mi lecho, me doy vuelta
    
    Dm                         E
     y no puedo conciliar el sueño
    
    
    Am
    quisiera que estés a mi lado,
    
    
    F
     para demostrarte que no te olvidado
    
    
  • LAm
    Las noche me traen recuerdos
    REm
    de aquel amor que era mio
    SOL
    estando solo en mi lecho me doy vuelta
    MI
    y no puedo consiliar el sueño
    LAm
    quisiera que estes a mi lado
    REm
    para demostrarte que no te eh olvidado
    SOL                                    MI
    y por mas que me llames todo sera envano
    LAm
    se que tienes otro a tu lado
    REm
    que por el te deprimes y sufres
    SOL                                                 MI
    y no te acuerdas de lo nuestro que facil lo has olvidado
    
  • Esta cancion tb va dedicada para claudia
    siempre le oigo cantando esa parte de
    oh marilyn¡¡
    gracias por el cd¡¡¡
    y esta chida la cancion
    me encanta este intro de bajo
    uhh
    E|----|-------|---|-----|---------5--|
    A|--0-|-7-----|-5-|-567-|-------7----|
    D|----|---5-7-|---|-----|-5/7-5------|
    G|----|-------|---|-----|------------|
    
    Las noches me
    E|----|-|---|-------|-|-|---|---|-|-----|-----|-|------|
    A|--0-|-|-0-|-0-5-8-|-|-|-8-|-5-|-|-----|-5-7-|-|-7/0--|
    D|----|-|---|-------|-|-|---|---|-|-5/7-|-----|-|------|
    G|----|-|---|-------|-|-|---|---|-|-----|-----|-|------|
    
    Quisiera que
        x3
    E|--5----|-5------|----|-----|----|--------|
    A|----77-|---7----|--3-|--33-|--3-|----3---|
    D|-------|----5h7-|-3--|-3---|-3--|-33--3--|
    G|-------|--------|----|-----|----|--------|
    
    y que por mas que me llames
    E|---5-|--55-|--5-|---5--|----|-----|----|-------|
    A|--5--|-5---|-5--|-5--5-|--2-|--22-|--2-|---2---|
    D|-----|-----|----|------|-2--|-2---|-2--|-2--2--|
    G|-----|-----|----|------|----|-----|----|
  • +
    ¡Colabora con nosotros!
    Envíanos tu versión de esta canción

Oh Marylin Lyrics
las noches me traen recuerdos,
de aquel amor que era mío
estando solo en mi lecho, me doy vuelta
y no puedo conciliar el sueño
quisiera que estés a mi lado,
para demostrarte que no te olvidado
y que por mas que me llame, todo será en vano.
desde que tienes otro a tu lado,
que por el te deprimes y sufres
y no te acuerdas de lo nuestro, que fácil lo has olvidado
oh marilyn,oh marilyn, marilyn marilyn,
oh marilyn, oh marilyn
como olvidarme hoy de
ti, oh marilyn, oh marilyn, oh marilyn, oh marilyn
si te hice mia, y yo fui feliz,
oh marilyn , oh Marilyn
desde que tienes otro a tu lado,
que por el te deprimes y sufres
y no te acuerdas de lo nuestro, que fácil lo has olvidado
oh marilyn,oh marilyn, marilyn marilyn,
oh marilyn, oh marilyn
como olvidarme hoy de
ti, oh marilyn, oh marilyn, oh marilyn, oh marilyn
si te hice mia, y yo fui feliz,
oh marilyn , oh Marilyn




[Oh Marylin acordes][Oh Marylin cifra]
© LaCuerda.net · legal notice · privacy · es · en · pt · contact us
DINAMICO