Guitar Chords » A »Abel Zavala » Jesús mi fiel amigo (Tab)

Jesús mi fiel amigo
Abel Zavala

Lyrics, Chords & Tabs for Guitar, Bass & Ukulele

  • G2  -  C2  -  G2  -  C
    
    VERSO 1:
    
         D/F#  G                        C
    Llevame alla, Donde se que Habra Paz
                    D/F#    G
    Donde tengo que callar
                          Am7 
    para escucharte Hablar 
                          Em7
    donde todo es realidad
                D            C
    y el tiempo no existe más
    
    VERSO 2:
    
    D/F#       G                          C
    Una y otra vez, Al estar yo junto a Ti
                D/F#       G
    
  •  C               G     C
    Jesus mi fiel Amigo
                    G      C
    mi Dulce Caminar
    B7              Em
    Quedate conmigo
                            F
    No quiero volver atras
       F           Am     G      F           C
    //   No Quiero   Volver Atras //
    
    
    VERSO 1:
    
              G                        Cadd2
    Llevame alla, Donde se que Habra Paz
                        G
    Donde tengo que callar
                         Am7
    para escucharte Hablar
    
  •    C      G
    Llévame allá
                       Cadd2
    Donde sé que habrá paz
                        G
    Donde tengo que callar
                       Am7
    Para escucharte hablar
                        Em
    Donde todo es realidad
              D            C
    Y el tiempo no existe más
    
                G
    Una y otra vez
                        Cadd2
    Al estar yo junto a ti
                      G
    No me puedo contener
                     Am7
    
  • Hola, aqui esta esta tablatura de esta hermosa cancion,
    cualquier correccion favor de enviarme un email.
    Esta a compas de 4/4 tempo 62.
    Cabe notar que la hice a una escala mas abajo, porque
    no tengo guitarra electrica, asi que la hice con mi
    guitarra acustica.
    
    
    
    E|---------------------------------------------------------|
    B|-----3--1------------------------------------------------|
    G|-----------------------------------------------4--5----4-|
    D|---------------------------------------------------------|
    A|---------------------------------------------------------|
    E|---------------------------------------------------------|
    
    
    E|---------------------------------------------------------|
    B|---------------------------------------------------3---5-|
    G|---0----0------------------------------------------------|
    D|---------------------------------------------------------|
    A|---------------------------------------------------------|
    E|---------------------------------------------------------|
    
    E
  • +
    ¡Colabora con nosotros!
    Envíanos tu versión de esta canción
  • Tutorial
    Jesus mi fiel amigo tutorial con guitarra acustica
    8:05

Jesús mi fiel amigo Lyrics
VERSO 1:
Llevame alla, Donde se que Habra Paz
Donde tengo que callar
para escucharte Hablar
donde todo es realidad
y el tiempo no existe más
VERSO 2:
Una y otra vez, Al estar yo junto a Ti
No me puedo contener
Cuando me miras asi
Ya no hay nada que decir
Eres todo para mi
Jesus mi fiel Amigo
mi Dulce Caminar
Quedate conmigo
No quiero volver atras
//: No Quiero Volver Atras //




[Jesús mi fiel amigo acordes][Jesús mi fiel amigo cifra]
© LaCuerda.net · legal notice · privacy · es · en · pt · contact us
DINAMICO