Guitar Chords » W »Warcry » Un lugar sin Dios (Tab)

Un lugar sin Dios
Warcry

Lyrics, Chords & Tabs for Guitar, Bass & Ukulele

  •        Bm - A  - Bm - A  - Bm - A
    
           G  - Bm - A
    
    
    
    G        Em
    Ví en mi sueño
    
    G                    Bm
    oscuridad a mí alrededor.
    
              G             Em
    Os ví llorar... y en mi sueño
    
          G     A    Bm    A
    había algo aterrador:
    
    G         Em
    Oí las campanas,
    
  • De tanto buscar este solo y no encontrarlo,
    tuve k tratar d sacarlo ps, kn mis pocos
    conocimientos de guitarra...
    a ver los grandes guitarristas compartan
    lo k saben... no es muy dificil,
    solo se trabaja por escalas, tokenla
    con todos los argumentos k tengan para
    k suene bien...
    
    Solo (2:58)
    e---------------------------------------
    B------------15-12b---15-17b-17-15-17---
    G---------14----------------------------
    D---11-14-------------------------------
    A---------------------------------------
    E---------------------------------------
    
    e---19-17-19-17-15-14-15-14--------------------------------
    B---------------------------17-17-19-17-15-14-15-14-10-12--
    G----------------------------------------------------------
    D----------------------------------------------------------
    A----------------------------------------------------------
    E----------------------------------------------------------
    
    e---------------------------------------10-10-7----
    B-----------------------------10-10-7----------
  • Esta es mi primera transcripción y seguro tiene errores,
    pues hay sonidos que no sé como transcribirlos,
    espero que la puedan entender...
    Cualquier comentario o corrección, por favor escriban a:
    angluzmetal@hotmail.com
    Está canción se toca con la guitarra afinada un tono menor,
    es decir:
    1ra – D# (Re#/Mib)
    2da – A# (La#/Sib)
    3ra – F# (Fa#/Solb)
    4ta – C# (Do#/Reb)
    5ta – G# (Sol#/Lab)
    6ta - D# (Re#/Mib)
    
    
    Intro...
    |------------------------------------------------|
    |------------------------------------------------|
    |------------------------------------------------|
    |-5-----8--8--7--7-------------------------------|
    |-3-----6--6--5--5--8--8-----5----3--3--3---3-3--|
    |-------------------6--6-----3----1--1--1---1-1--|
    
    |------------------------------------------------|
    |------------------------------------------------|
    |------------------------------------------------|
    |-5-----8--8--7--7-------------------------------|
    |-3-----6--6--5--5--8--8-----5----3--3--3---3-3--|
    |-----------
  • NOTA:
    
    Espero y te ayude en algo esta tab.
    
    Si necesitas una tab en especial, escríbeme o visita...
    
    http://www.myspace.com/alejandrolauyola
    
    
    
    G||-------|-------|-------|-------|-------|-------|-------|-------|
    D||-------|-------|-------|-------|-------|-------|-------|-------|
    A||-------|-------|-------|-------|-------|-------|-------|-------|
    E||-------|-------|-------|-------|-------|-------|-------|-------|
    
    
      E  E  E  E  E  E  E  E     E  E  E  E  E  E  E  E
    --------------------------|--------------------------|
    --------------------------|--------------------------|
    --2--2--2--2--2--2--2--2--|--2--2--2--5--5--4--4-----|
    --------------------------|-----------------------5--|
    
    
      E  E  E  E  E  E  E  E     E  E  E  E  E  E  E  E
    --------------------------|--------------------------|
    --------------------------|--------------------------|
    --------------------------|--------------------------|
    --5--5--5--5--5--5--5--5--|--2--2--2--2--2--0--0--0--|
    
    
      E  E  E  E  E  E  E  E     E  E
  • +
    ¡Colabora con nosotros!
    Envíanos tu versión de esta canción

Un lugar sin Dios Lyrics
Ví en mi sueño
oscuridad a mí alrededor.
Os ví llorar... y en mi sueño
había algo aterrador:
Oí las campanas,
sentí latir mi corazón...
Sentí el frescor de la mañana...
la mañana de mi adiós.
Quiero escapar, quiero salir,
quiero reunirme junto a tí.
No aguanto más la oscuridad,
me falta el aire al respirar.
Quiero escapar, quiero salir...
¿qué es este sitio?... ¿qué hago aquí?...
No tengo ganas de imaginar
que ha llegado mi final...
Estoy sentado en un
lugar del cementerio;
veo como me acompañais
en mi entierro.
Intento gritar, pero ya sé
que no puedo despertar,
huir de este lugar sin Dios...
No sé si es un sueño
del cual soy dueño
o símplemente es la pura realidad.
No sé si vivo
o quizás muerto.
Perdido en el camino al mas allá,
tan sólo quiero despertar...
tan sólo quiero despertar.
Quiero escapar, quiero salir...
¿qué es este sitio?... ¿qué hago aquí?...
No tengo ganas de imaginar
que ha llegado mi final...
Estoy sentado en un
lugar del cementerio;
veo como me acompañais
en mi entierro.
Intento gritar, pero ya sé
que no puedo despertar,
huir de este lugar sin Dios...
No puedo...




[Un lugar sin Dios acordes][Un lugar sin Dios cifra]
© LaCuerda.net · legal notice · privacy · es · en · pt · contact us
DINAMICO