Guitar Chords » W »Warcry » Quiero Oírte (Tab)

Quiero Oírte
Warcry

Lyrics, Chords & Tabs for Guitar, Bass & Ukulele

  • e|----------------------------|---------------------------------|
    B|----------------------------|---------------------------------|
    G|----------------------------|---------------------------------|
    D|-7-----7----7----7----7--7--|-8-----8----8----8----8--8-------|
    A|--5-5---5-5--5-5--5-5--5--5-|--5-5---5-5--5-5--5-5--5--5------|
    E|----------------------------|---------------------------------|
    
    
    e|----------------------------|---------------------------------|
    B|----------------------------|---------------------------------|
    G|----------------------------|---------------------------------|
    D|-6-----6----6----6----6--6--|-7-----7----7----7----7--7-------|
    A|--5-5---5-5--5-5--5-5--5--5-|--5-5---5-5--5-5--5-5--5--5------|
    E|----------------------------|---------------------------------|
    
    
    [Intro del ritmo]
    
    D  D  D  D
    
    
  • SIm
    No hay distancia que no pueda recorrer,
        SOL        LA             SIm
    mi camino es difícil de entender.
    SIm
    Busco un reto donde pocos quedan ya,
        SOL          LA          SIm
    una llama que jamás se apagará.
    
    SOL                   LA
    Una leyenda, sólo un sueño,
                     SIm
    simplemente un rumor.
    SOL                     LA
    Busco a alguien con la fuerza
                         SIm
    necesaria en su interior.
    
    SIm
    Ven y muéstrate ante mi.
    
  • +
    ¡Colabora con nosotros!
    Envíanos tu versión de esta canción

Quiero Oírte Lyrics
No hay distancia que no pueda recorrer,
mi camino es difícil de entender.
Busco un reto donde pocos quedan ya,
una llama que jamás se apagará.
Una leyenda, sólo un sueño,
simplemente un rumor.
Busco a alguien con la fuerza
necesaria en su interior.
Ven y muéstrate ante mi.
Una leyenda, sólo un sueño,
simplemente un rumor.
Busco a alguien con la fuerza
necesaria en su interior.
Quiero oírte gritar sobre el resto de la gente,
muéstrame la pasión que te hace diferente
y grita: yo soy mi rey, mi propia ley,
soy mi futuro y mi presente,
llegué hasta aquí, a descubrir
si tienes algo que ofrecerme...
Muéstramelo.
Ningun miedo al destino,
nada debes de temer.
Fui yo quien te dio tu hilo,
nada tu podrás hacer
Asi que ahora...
Quiero oírte gritar sobre el resto de la gente,
muéstrame la pasión que te hace diferente
y grita: yo soy mi rey, mi propia ley,
soy mi futuro y mi presente,
estoy aquí, quiero vivir,
y quiero hacerlo eternamente...
Muéstramelo.
Quiero oírte gritar sobre el resto de la gente,
muéstrame la pasión que te hace diferente
y grita: yo soy mi rey, mi propia ley,
soy mi futuro y mi presente,
estoy aquí, quiero vivir,
y quiero hacerlo eternamente...
Muéstramelo.




[Quiero Oírte acordes][Quiero Oírte cifra]
© LaCuerda.net · legal notice · privacy · es · en · pt · contact us
DINAMICO