Guitar Chords » V »Vox Dei » Moises (Tab)

Moises
Vox Dei

Lyrics, Chords & Tabs for Guitar, Bass & Ukulele

  • D
    Niño que flotas en las aguas
    niño,niño,niño,niño
    niño que te salvan de las aguas
    por que te salva,niño,niño?
    
    De donde traes ese niño?
    de donde lo traes?dimelo,rio
    aguas frescas,niño,niño
    rio mio,tibio niño
    
    A7
    
    D
    Por que te salvan,niño,del rio?
    es que quizas no debas morir
    por que te salvan,niño,del rio
    es que quizas debas vivir
    
    Aguas frescas para un niño
    
  • e|-2-----2---------|-2-----2---------|-2-----2---------|-2-----2---------|
    B|-3-3-----3---3---|-3-3-----3---3---|-3-3-----3---3---|-3-3-------------|
    G|-2---2-----2---2-|-2---2-----2---2-|-2---2-----2---2-|-2---2-----------|
    D|-0---------------|-0---------------|-0---------------|-0---------------|
    A|-----------------|-----------------|-----------------|-----------------|
    E|-----------------|-----------------|-----------------|-----------------|
     |
     |Guitarra 2 (fig 2):
    e|-----------3p2-3-|-5-----5---3p2-3-|-2---------------|-----------------|
    B|-----------------|-----------------|---------------3-|---3-------------|
    G|-----------------|-----------------|--------------2--|-----2-----------|
    D|-----------------|-----------------|-------------0---|-----------------|
    A|-----------------|-----------------|-----------------|-----------------|
    E|-----------------|-----------------|-----------------|-----------------|
     |
     |Guitarra 3
    e|-----------------|-----------------|-----------------|-------------8p7-|
    B|-----------------|-----------------|-----------------|-----------------|
    G|-----------------|-----------------|-----------------|-----------------|
    D|-----------------|-----------------|-----------------|-----------------|
    
  • Intro: [D]
    
    [D]
    Niño que flotas en las aguas, niño, niño, niño mío.
    
    Niño que te salvan de las aguas ¿por qué te salvan, niño mío?
    [D]
    ¿De dónde traes ese niño?, ¿de dónde lo traes?, dímelo río.
    
    Aguas frescas, niño, niño; río mío, tibio niño.
    
    [D]
    ¿Por qué te salvan, niño del río?, es que quizás no debas morir.
    
    ¿Por qué te salvan, niño del río?, es que quizás debas vivir.
    [D]
    Aguas frescas para un niño, aguas frescas de este río.
    
    Aguas frescas para un niño, aguas frescas de este río.
    
    
  • +
    ¡Colabora con nosotros!
    Envíanos tu versión de esta canción

Moises Lyrics
Niño que flotas en las aguas
niño,niño,niño,niño
niño que te salvan de las aguas
por que te salva,niño,niño?
De donde traes ese niño?
de donde lo traes?dimelo,rio
aguas frescas,niño,niño
rio mio,tibio niño
Por que te salvan,niño,del rio?
es que quizas no debas morir
por que te salvan,niño,del rio
es que quizas debas vivir
Aguas frescas para un niño
aguas frescas de este rio
aguas frescas para un niño
aguas frescas de este rio
Ahora que eres hombre,yo te llamo para darte
un grande mensaje que a la gente debes dar
Ven y vuelve pronto que te espero para hablarte
ya llego el momento,nos tenemos que encontrar
No debes buscarme,yo estare en cualquier parte
ya llego el momento nos tenemos que encontrar
Sol que quiero verte,que quiero verte
y te voy a buscar
Sol que quiero oirte,que quiero oirte
y te voy a escuchar
camino,camino,camino,camino




[Moises acordes][Moises cifra]
© LaCuerda.net · legal notice · privacy · es · en · pt · contact us
DINAMICO