Guitar Chords » V »Vicente Fernandez » La Derrota (Tab)

La Derrota
Vicente Fernandez

Lyrics, Chords & Tabs for Guitar, Bass & Ukulele

  • Intro: Am7 D7 G G A7 D F#m7 Em A7 D
    
    
                                     D
    Por darle rienda suelta a mis antojos
        Am7           D7          G
    por no tener conciencia del abismo
                  A7             D    F#m
    por eso ayer hice llorar sus ojos
                         Em  A7       D
    y  hoy mis ojos también hacen lo mismo.
    
       D             A7           D
    Por no medir los pasos que tomaba
        Am7               D7           G
    por eso es que he llegado a la derrota
                                      D
    le hice una traición a quien me amaba
               A7                         D
    y ahora estoy como estoy, con el alma rota.
    
  • RE
    Por darle rienda suelta a mis antojos
              RE7              SOL
    por no tener conciencia del abismo
                                RE
    por eso ayer hice llorar sus ojos
                        LA             RE
    y hoy mis ojos también hacen lo mismo
    
    RE
    Por no medir los pasos que tomaba
               RE7                 SOL
    Por eso es que he llegado a la derrota
                                    RE
    le hice una traición a quien me amaba
                       LA
    y ahora estoy como estoy
               RE
    con mi alma rota
    
    
  • e----------------3-2/(7)-7-7--7-------5-5--5h(7)(5)----------
    B------3--2-5-3------------------5/(7)-----7-----------------
    G---------------4--2/(7)-7-7-7-------------------------------
    D---4-4---2-5-4----------------------------------------------
    A------------------------------------------------------------
    E------------------------------------------------------------
    
    esta es la parte de las trompetas version guitarra.
    
    D        D7                    G        A7
    
    e--7-8---7-8--7-8---12--10-10--8---7--7-12-10-12-10-12-10-9--
    B--8-10--8-10-8-10--13--12-12--10--8--8-14-12-14-12-14-12-10-
    G------------------------------------------------------------
    D------------------------------------------------------------
    A------------------------------------------------------------
    E------------------------------------------------------------
    
    
               D                       A7            D
    
  • +
    ¡Colabora con nosotros!
    Envíanos tu versión de esta canción

La Derrota Lyrics
Por darle rienda suelta a mis antojos
por no tener conciencia del abismo
por eso ayer hice llorar sus ojos
y hoy mis ojos también hacen lo mismo
Por no medir los pasos que tomaba
Por eso es que he llegado a la derrota
le hice una traición a quien me amaba
y ahora estoy como estoy
con mi alma rota
Que tal que tal se siente corazón
ahora si te pegaron
es cara cara cara la traición
y al fin de la cobraron
Por darle rienda suelta a mis antojos
por no tener conciencia del abismo
por eso ayer hice llorar sus ojos
y hoy mis ojos también hacen lo mismo
Que tal que tal se siente corazón
ahora si te pegaron
es cara cara cara la traición
y al fin de la cobraron
Por no medir los pasos que tomaba
por eso es que he llegado a la derrota
le hice una traición a quien me amaba
y ahora estoy como estoy
con mi alma rota.
Les devo el intro pero es la primera que saco
te amo charo...




[La Derrota acordes][La Derrota cifra]
© LaCuerda.net · legal notice · privacy · es · en · pt · contact us
DINAMICO