Guitar Chords » S »Skay Beilinson » Egotrip (Tab)

Egotrip
Skay Beilinson

Lyrics, Chords & Tabs for Guitar, Bass & Ukulele

  •    A                         D
    g-------6-6-6----4-------------------------/
    d---------------------7--------------------/
    a----------------------------5---5----5-7-5/
    
      A                         D
    g-6-6-6-6-6-6----4-------------------------/
    d---------------------7--------------------/
    a----------------------------5---5----5-7-5/
    
      A                        F        G        A
    e---------------------------------------------------------------5--5--5---/
    b---------------------------------------------------------------5--5--5---/
    g---6-6-6----4--------------5---5-----4--------------7--6-----------------/
    d---------------------7----------------7----5---7-----------7-------------/
    
    A                        D
    ¿Cuál de todos esos que sos?
    A                        D
    ¿de cuál serás esclavo esta vez?
    
  •      LA                         RE
    sol-------6-6-6----4-------------------------
    re---------------------7---------------------
    la----------------------------5---5----5-7-5-
    
       LA                         RE
    Sol--6-6-6-6-6-6----4-------------------------
    Re---------------------7----------------------
    La----------------------------5---5----5-7-5--
    
        LA                      FA       SOL        LA
    mi------------------------------------------------------------------------
    si---------------------------------------------------------------5--5--5--
    sol---6-6-6----4--------------5---5-----4--------------7--6---------------
    re---------------------7------------------7----5---7-----------7------------
    
    
    LA                       RE
    ¿Cuál de todos esos que sos?
    LA                        RE
    
  • e--2-2-2-2-2-----------------------/--2-2-2------------------------/
    b------------4-2-------------------/--------4-2--------------------/
    g----------------0---0-0-020-ligado/------------0---0-0-020-ligado-/
    d------------------------------------------------------------------/
    a------------------------------------------------------------------/
    e------------------------------------------------------------------/
    
                      parte tercera
    e------------------------------------5--5---/
    b--2-2-2-----------------------------5--5---/
    g--------4-2-5-5----4-2-0-2----7-6----------/   nota: en la parte tercera
    d----------------------------------7--------/    hacer vibrato en las
    a-------------------------------------------/     notas que asientan
    e-------------------------------------------/
    
    
    A                       D     D D4
    ¿Cuál de todos esos que sos?
    
    
    
  • +
    ¡Colabora con nosotros!
    Envíanos tu versión de esta canción

Egotrip Lyrics
parte tercera
¿Cuál de todos esos que sos?
¿De cuál serás esclavo esta vez?
Todos dicen: "yo soy el rey Yo Soy yo Soy yo".
las sig estrofas son iguales
El ego es su cárcel
Las máscaras son de papel
Todos dicen: "yo
El rey soy yo".
Él manda:
"Yo, yo, yo
Siempre yo".
¿Cuál va a ser el gran dictador
Que decida tu destino por hoy?
Todos dicen: "yo
El rey soy yo".
Fantasmas.
En la trayectoria que va
De la cuna a la fosa final
El ego dice: "yo
Siempre yo".
Él manda:
"Yo, yo, yo
Siempre yo".
"Siempre yo".
temaso del flaco recien lo saco medio apurado prometo completar el solo
elpirataceleste
aguante skay y belgrano de cordoba




[Egotrip acordes][Egotrip cifra]
© LaCuerda.net · legal notice · privacy · es · en · pt · contact us
DINAMICO