Guitar Chords » R »la Renga » Corazón Fugitivo (Tab)

Corazón Fugitivo
la Renga

Lyrics, Chords & Tabs for Guitar, Bass & Ukulele

  • 4)-1-1--------------
    4)-2-2--------------
    5)-2-2--4-4---------        x 3 y cierra en un golpe de E
    6)-0-0------5-4--2-0
    
         ESTROFA
    B5
    Escapando en la noche voy
    C#5
    a dejarlo todo atrás,
    B5
    como un polizón esperando en el
    C#5              A5
    frío de la terminal
    B5
    Ohh mi alma solitaria
    C#5
    tendré que irte a buscar,
    B5
    escapando en la noche
    
  • 4)-2-2--------------
    5)-2-2--4-4---------        x 3 y cierra en un golpe de Em
    6)-0-0------5-4--2-0
    
         ESTROFA
    B
    Escapando en la noche voy
    C#5
    a dejarlo todo atrás,
    B
    como un polizón esperando en el
    C#5              A
    frío de la terminal
    B
    Ohh mi alma solitaria
    C#5
    tendré que irte a buscar,
    B
    escapando en la noche
    C#5                A
    
  • e|-----------------------|
    b|-----------------------|
    g|-----------------------|
    d|-2-2-2-------------2---|
    a|-2-2-2-4-4-0-------2---|
    e|-0-0-0-------4--2--0---|x4
         PM.
    Verso:
    |----------------------------------------------|
    |----------------------------------------------|
    |----------------------------------------------|
    |-4--4-4--4--4-4--4-4-4--6--6-6--6--6-6--6-6-6-|
    |-2--2-2--2--2-2--2-2-2--4--4-4--4--4-4--4-4-4-|
    |----------------------------------------------|
    PM   ...     ...    .       ...     ...    .
    
    |----------------------------------------------|
    |----------------------------------------------|
    |----------------------------------------------|
    |-4--4-4--4--4-4--4-4-4--6--6-6--6--2-2-2-2----|
    
  • e|----------------------------------------------------------------------
    B|----------------------------------------------------------------------
    G|----------9^-8-9-8-9-8-9-8---9h16-16-14-13-14p13-14p13-14p13----------
    D|------9-7------------------9---------------------------------14-------
    A|--7-6-----------------------------------------------------------------
    E|7---------------------------------------------------------------------
    
    e|----------------------------------------------------------------------
    B|-----13----------------15-17-15^-15-----------------------------------
    G|-12^----13v13v13vp------------------12-14-12--------------------------
    D|--------------------16-----------------------14-----------------------
    A|----------------------------------------------------------------------
    E|----------------------------------------------------------------------
    
    e|----------------------------------------------------------------------
    B|----17----19^-17-20^-17-17v-17v-17v-19^-------------------------------
    G|-18----18-------------------------------------------------------------
    D|----------------------------------------------------------------------
    A|----------------------------------------------------------------------
    E|----------------------------------------------------------------------
    
  • Intro:
    G|-------------------|
    D|-------------------|
    A|-----4-4-----------|
    E|--222---5-4-2-42---| x 4
    
    
    
    
     Notas:
        - B -       - C# -       - A -
    G|-----------||----------||----------|
    D|-----------||----------||----------|
    A|-22222222--||-44444444-||-00000000-|
    E|-----------||----------||----------|
    
         ESTROFA -1-
    
    B
    Escapando en la noche voy
    C#
    a dejarlo todo atrás,
    B
    como un polizón esperando en el
    C#              A
    frío de la terminal
    B
    Ohh mi alma solitaria
    C#
    tendré que irte a buscar,
    B
    escapando en la noche
    C#                 A
    nadie nos encontrara,
    
                 ESTRIBILLO                   - B -      RIFF -1-
                                          G)----------|-----------|
    B                     RIFF 1          D)----------|-----2-----|
    Hielo en la madrugada,                A)-22222222-|-44---4-2--|
    B                     RIFF 1          E)----------|-----------|
    la fría ruta del mar,
    B                     RIFF 1
    a un corazón que se escapa,
    B                   C#   A
  • +
    ¡Colabora con nosotros!
    Envíanos tu versión de esta canción
  • Tutorial
    HD
    Como tocar "Corazon fugitivo" de la Renga en el bajo tutorial#50
    8:51

Corazón Fugitivo Lyrics
ESTROFA
Escapando en la noche voy
a dejarlo todo atrás,
como un polizón esperando en el
frío de la terminal
Ohh mi alma solitaria
tendré que irte a buscar,
escapando en la noche
nadie nos encontrara,
ESTRIBILLO
la fría ruta del mar,
a un corazón que se escapa,
no lo quieras enjaular, no!!
ESTROFA
Cuando pase la tormenta
nada nos detendrá
perdidos al sur de aquellas playas,
arenas de la soledad,
corazón fugitivo
tendré que irte a buscar
escapando en la noche nadie
nos encontrara,
ESTRIBILLO
la fría ruta del mar,
a un corazón que se escapa,
no lo quieras enjaular, no!!
ESTRIBILLO
la fría ruta del mar,
a un corazón que se escapa,
no lo quieras enjaular, no!!
Correciones: La intro no empieza en Em empieza en E Como termina el tema
El riff tambien estaba mal ahora queda bien para formar rapido el acorde B5
Un abrazo a todos.
Twitter.com/Cpdivan




[Corazón Fugitivo acordes][Corazón Fugitivo cifra]
© LaCuerda.net · legal notice · privacy · es · en · pt · contact us
DINAMICO