Guitar Chords » R »la Renga » Arte Infernal (Tab)

Arte Infernal
la Renga

Lyrics, Chords & Tabs for Guitar, Bass & Ukulele

  • Intro: e -----------------------------------------]P
           b -----------------------------------------]o
           g ---------------------2--2--2--2----------]r
           d ---------------------2--2--2--2----------]
           a ---------------------0--0--0--0----------]4
           E -0--3-4---0--3-4--0----------------------]
    
      E           F#m
    Ese adios te rompio en pedazos,
      A             E
    Tus ganas de seguir.
    Em              F#m
    El que sabe que ya no hay caso,
    A                E
    Esta dispuesto a sufrir.
    
    
    Las cuestiones de los fracasos,
    
    Siempre fueron asi.
    
  •        E -0--3-4---0--3-4--0---------------------->
    
      Em           F#m
    Ese adios te rompio en pedazos,
      A             Em
    Tus ganas de seguir.
    Em              F#m
    El que sabe que ya no hay caso,
    A                Em
    Esta dispuesto a sufrir.
    
    
    Las cuestiones de los fracasos,
    
    Siempre fueron asi.
    
    No quieres dormir en otros brazos,
    
    si te dan a elegir.
    
    
  • Intro
    G|--------------------|x4
    D|--------------------|
    A|--------------------|
    E|-0000-0-3-4-0-3-4-0-|
    
    Verso
    G|--------------------------|x4
    D|--------------------------|
    A|--------------------------|
    E|-000000-2222-55555-000000-|
    
    Coro
    G|--------------|x3 |-------------|
    D|--------------|   |-------------|
    A|-555555-------|   |-22222-55555-|
    E|-------555555-|   |-------------|
    
    Puente
    G|--------------------|x4
    D|--------------------|
    A|--------------------|
    E|-0000-0-3-4-0-3-4-0-|
    
    Verso
    G|--------------------------|x4
    D|--------------------------|
    A|--------------------------|
    E|-000000-2222-55555-000000-|
    
    Coro
    G|--------------|x3 |-------------|
    D|--------------|   |-------------|
    A|-555555-------|   |-22222-55555-|
    E|-------555555-|   |-------------|
    
    Puente
    G|--------------------|x2
    D|--------------------|
    A|--------------------|
    E|-0000-0-3-4-0-3-4-0-|
    
    Solo
    G|--------------------------|x4
    D|--------------------------|
    A|-----------
  • +
    ¡Colabora con nosotros!
    Envíanos tu versión de esta canción

Arte Infernal Lyrics
Ese adios te rompio en pedazos,
Tus ganas de seguir.
El que sabe que ya no hay caso,
Esta dispuesto a sufrir.
Las cuestiones de los fracasos,
Siempre fueron asi.
No quieres dormir en otros brazos,
si te dan a elegir.
Los tallos de esa rosa
Siempre van a lastimar,
Dios las hizo tan hermosas,
Con un arte infernal.
A un buen recurso apuestan los hombres
antes de decidir
Esa botella no tiene nombre
y ahora me toca a mi.
Pero todo no termina tan pronto
aun que lo creas asi
es el final y siempre empieza todo
con el riesgo al vivir.
Final:Intro
Chau. Un saludo para todos los soñadores como yo.
VIVA LA MUSICA.




[Arte Infernal acordes][Arte Infernal cifra]
© LaCuerda.net · legal notice · privacy · es · en · pt · contact us
DINAMICO