Guitar Chords » P »Puerto Seguro » Como vos y yo (Tab)

Como vos y yo
Puerto Seguro

Lyrics, Chords & Tabs for Guitar, Bass & Ukulele

  • INTRO:Bm-F#m-Em-Bm-A
    
    D                     F#m
    Conocí aun joven como vos y como yo
         Em                     G        A
    él estaba en un mundo donde era el mejor
        D                        F#m
    las drogas lo llevaron a cometer un gran error
              Em                    G               F#
    pero el robar para él se convirtió en una diversión
    
    CORO
    
    Bm           F#m     Bm           F#m              Em
    No solo no estás , tienes que escapar , de tu soledad
                         Bm              A
    No tienes que fingir mas que eres feliz
    Bm            F#m     Bm                 F#m  
    Si puedes cambiar el mundo esperándote está
                      Em                 Bm              A
    
  •    E:-----------------------------------------------------:
       B:--17FULL-18-16-14----14----------16-14---------------:
       G:------------------17----16-17-14-------17-16-12------:
       D:-----------------------------------------------------:
       A:-----------------------------------------------------:
       E:-----------------------------------------------------:
    
       E:-----------------------------------------------------:
       B:--16-14----14-10-------------------------------------:
       G:--------17-------14-10----12-16-14---v---------------:
       D:-----------------------14----------------------------:
       A:-----------------------------------------------------:
       E:-----------------------------------------------------:
    
    ESTOS  SON ALGUNOS ADORNOS QUE LES VA A SERVIR BASTANTE USENLOS
    NO SON TAN DIFICILES
       E:------------------:--------9-10-12-16-9---------------------:
       B:------------------:--10-12--------------12/10v--------------:
       G:------------------:-----------------------------11/9v-------:
       D:------------------:-----------------------------------------:
    
  • INTRO: Bm-F#m-Em-Bm-A
    
    e)---------------------------|--------------------------|
    B)--17/19-15-14-15-12-14-10--|--15/17-14-12-14-10-12-8--|
    G)---------------------------|--------------------------|
    D)---------------------------|--------------------------|
    A)---------------------------|--------------------------|
    E)---------------------------|--------------------------|
    
    e)----------------------------------|
    B)--15/17-14-15-12------12-15--14~--|
    D)------------------14--------------|
    G)----------------------------------|
    A)----------------------------------|
    E)----------------------------------|
    
    
    
    D                     F#m
    Conocí aun joven como vos y como yo
    
  • Hola amigos esta canción tiene una línea de bajo
    chévere, aquí se las mando pero se necesita un bajo de
    5 cuerdas, para q suene igual q el original pss :)
    (s=slide)
    
    :Intro:
    
    G:-----------------:-----------------:---------------:----------:
    D:-----------------:-----------------:---------------:----------:
    A:2—-2---0-2--0-2--:-----------------:---------------:----------:
    E:-----2----------0:2—-2---0-2--0-2--:0—-0---3-0----0:7--7-7--5-:
    B:-----------------:-----2----------0:-----0------3--:----------:
    
    :Estrofa:
    
    G:--------------:--------------:----------------:-------:---------------:
    D:--------------:--------------:----------------:-------:---------------:
    A:5--5-5--5--5-5:--------------:----------------:-------:---------------:
    E:--------------:2-—2-2--2--2-2:0--0-0--0--0-0-2:3--3-3-:5--5-5---------:
    B:--------------:--------------:----------------:-------:---------------:
    
    G:--------------:--------------:----------------:-------:---------------:
    D:--------------:-------------
  • +
    ¡Colabora con nosotros!
    Envíanos tu versión de esta canción
  • Tutorial
    HD
    Como vos y como yo - PUERTO SEGURO (acordes)
    4:30

Como vos y yo Lyrics
Conocí aun joven como vos y como yo
él estaba en un mundo donde era el mejor
las drogas lo llevaron a cometer un gran error
pero el robar para él se convirtió en una diversión
No solo no estás , tienes que escapar , de tu soledad
No tienes que fingir mas que eres feliz
Si puedes cambiar el mundo esperándote está
vuelve a la realidad Jesús contigo está, vuelve a Cristo
No encontraba nada que le quite su adicción
le pedía muchas veces que confiara solo en Dios
Recuerdo tantas cosas que este joven me contó
pero nunca olvidaré su propia y triste confusión
OTRA VEZ AL CORO....




[Como vos y yo acordes][Como vos y yo cifra]
© LaCuerda.net · legal notice · privacy · es · en · pt · contact us
DINAMICO