Guitar Chords » P »Pibes Chorros » La Danza Chorra (Tab)

La Danza Chorra
Pibes Chorros

Lyrics, Chords & Tabs for Guitar, Bass & Ukulele

  • -----------
    -----------
    -----------     (X4)
    -----------
    ----3--6--3
    --3--------
    
    Pibes Chorrossssss........
    
    ---------------------------|-------------------------|
    ---------------------------|-------------------------|
    ---------------------------|-------------------------|
    ---------------------------|-------------------------|
    --3-3--6-6--5-8--10-11-10--|-3-3--6-6--5-8-----------|
    ---------------------------|----------------3--4--3--|
    
    
    ---------------------------|---------------------------|
    ---------------------------|---------------------------|
    ---------------------------|---------------------------|
    
  • Esta es la danza de los pibes chorrossss......
    
    -----------
    -----------
    -----------     (X4)
    ----------- 
    ----3--6--3
    --4--------
    
    Pibes Chorrossssss........
    
    ---------------------------|-------------------------|
    ---------------------------|-------------------------|
    ---------------------------|-------------------------|
    ---------------------------|-------------------------|
    --3-3--6-6--8-8--10-11-10--|-3-3--6-6--8-8-----------|
    ---------------------------|----------------3--4--3--|
    
    
    ---------------------------|-------------------------|
    ---------------------------|-------------------------|
    ---------------------------|-------------------------|
    ---------------------------|-------------------------|
    --3-3--6-6--8-8--10-11-10--|-3-3--6-6--8-8--10-11-10-|
    ---------------------------|-------------------------|
    
    
    
    ----------------
    ---13--11--9--8-
    -12-------------
    ----------------    (X4)
    ----------------
    ----------------
    
    
    
    Espero que les guste, me  
  • +
    ¡Colabora con nosotros!
    Envíanos tu versión de esta canción






[La Danza Chorra acordes][La Danza Chorra cifra]
© LaCuerda.net · legal notice · privacy · es · en · pt · contact us
DINAMICO