Tab of Oscar Agudelo: La cama vacía
Oscar Agudelo  corregir
desconocido
Los acordes que se usan en esta canción se deben hacer
con cejilla en el octavo traste.

E||----------------------------8--|--9--8--9--11--9--8---------|
B||----------8--9--11--10--11-----|---------------------11--9--|
G||--10--10-----------------------|----------------------------|
D||-------------------------------|----------------------------|
A||-------------------------------|----------------------------|
E||-------------------------------|----------------------------|



------------------8------9--|--8------------------------|
--8--9--8--9--11-----11-----|-----11--9--8--------------|
----------------------------|---------------10--9----8--|
----------------------------|---------------------------|
----------------------------|---------------------------|
----------------------------|---------------------------|


----------------------------|------------------8------||
---------8---------8--------|---9----8---------9------||
--9--10-----10--9-----10----|--------------9--10------||
----------------------------|--10----8--------10------||
----------------------------|-------------10---8------||
----------------------------|------------------8------||



                          e------------
                          B----7-8-7-8-
FAm                       G----8-9-8-9-
Desde un tétrico hospital, donde se hallaba internado
FAm FA7 LA#m 48-410-310-411-410-48 casi agónico, rodeado de un silencio sepulcral,
LA#m FAm con su ternura habitual, la que siempre demostró
FAm DO FAm Quizá con esfuerzo o no desde su lecho sombrío
DO# DO FAm Un enfermo amigo mío esta carta me escribió (Todas las demas estrofas se ejecutan de forma análoga a la primera). Querido amigo quisiera, que al recibir la presente, Te halles bien y que la suerte te acompañe por doquiera, Por mi parte y mal pudiera decirte que estoy mejor, Si al contrario en mi dolor postrado en mi lecho adyerto, Yo soy un pobre esqueleto que a mi mismo me da horror La carta es para decirte, que si podéis algún día Ven y haceme compañía vos que tanto me quisiste, Estoy tan solo y tan triste que lloro que lloro sin contenerme Ya nadie suele quererme todos se muestran impíos, De tantos amigos míos, ninguno ha venido a verme. Hoy yo te doy la razón, pues veo en mi soledad, Que esta llamada amistad es tan solo una ilusión, Cuando uno está en condición tiene amigos a granel, Pero si el destino cruel hacia un abismo nos tira, Vemos que todo es mentira y que no hay amigo fiel. Bueno aquí ya me despido al poner punto final Recibí un abrazo leal del que siempre te ha querido A tu mama que no olvido también mis recuerdos dale, Mucha devoción mostrale y caricias colmala, Voz que la tenés cuidala si supieras cuanto vale. Llegó el domingo y ansioso, por aquel amigo leal Penetré en el hospital angustiado y pesaroso, Me dirigí silencioso al lugar donde sabía, Que su lecho encontraría mas ahí ni bien lo encontré, Asombrado me quedé al ver la cama vacía.
This file is the work if its transcriptor and it represents his/her own interpretation of the song. This material is intended for PERSONAL USE ONLY. It is strictly forbiden to copy, reproduce or retransmit the contents of this website. Legal actions will be taken if required.
© LaCuerda.net · legal notice · privacy · es · en · pt · contact us