Guitar Chords » O »La Oreja de Van Gogh » El 28 (Tab)

El 28
La Oreja de Van Gogh

Lyrics, Chords & Tabs for Guitar, Bass & Ukulele

  •    SOL        DOadd9       MIm7       RE
    ---3----------------------------------------------
    ---------------3-----------2-----------0----------
    --------------------------------------------------
    -----0-----------0-----------0-----------0--------
    ---------3-----------3-----------3----------------
    -------3-----------3-----------3-----------2-3----
    
    
    SOL              DOadd9
    Llega tarde el 28 y
    MIm7               RE
    nerviosa miro el reloj,
    SOL              DOadd9
    la lluvia conmigo empieza
    MIm7               RE
    un día de pleno sol,
    FA           DO
    uh, uh, uh, uh, uh, uh
    SOL              DOadd9
    
  • C      C2     G/B         G   C2            G/B   D
    llega tarde el 28 y nerviosa miro el reloj
    G    C2      G/B       D        G     C2       G/B  D
    la lluvia conmigo empieza un día de pleno sol
    F           C
    uhm-----------------
    
    G       C2     G/B          G   C2         G/B  D
    a lo lejos aparece el recuerdo de un amor
    
    G      C2  G/B      D
    no me ve camina ausente
    G       C2  G/B    D
    hace mucho que paso
    F              C
    empecé a recordar ---------
          G     C
    y paseé
    Em7        D        G       C
    por mi mente y encontré
    
  • INTRO: G         Cadd9      Em7       D     Dsus4
    e|---------3---------3----------3-----------2-3--|
    B|---------3-3-------3-3--------3-3---------3----|
    G|-------0---------0----------0-----------2------|
    D|------------------------------------0----------|
    A|---------------3----------2--------------------|
    E|-----3-----------------------------------------|
    
    
    
    ESTROFA:
    G   Cadd9   Em7  D(sus4)   G Cadd9  Em7 D(sus4)
    Llega tarde el 28 y nerviosa miro el reloj,
    G   Cadd9  Em7 D(sus4)           G  Cadd9  Em7   D(sus4)
    la lluvia conmigo empieza un día de pleno sol,
    Fmaj7             C
    Uh, uh, uh, uh..
    
    
    ESTROFA:
    
  • (SOL DOadd9 MIm7 RE) X2
    
    ESTROFA (ARPEGIO 1)
    
    SOL              DOadd9
    Llega tarde el 28 y
    MIm7               RE
    nerviosa miro el reloj,
    SOL              DOadd9
    la lluvia conmigo empieza
    MIm7               RE
    un día de pleno sol,
    
    (ARPEGIO 2)
    FA           DO
    uh, uh, uh, uh, uh, uh
    
    
    ESTROFA (ARPEGIO 1)
    
    
  • G*      C*      Em*      D* 
    todo esto repetido con el mismo ritmo y punteo hasta donde empieza a decir 'Uuuuu'
    G*
    ---------3----------1ª cuerda
    ----------3---------
    ------0-------------       los dedos se ponen como un G pero el dedo anular se pone en el segundo traste
    --------------------       de la segunda cuerda   3-2-0-0-3-3
    --------------------
    --3-----------------6ª cuerda
    
    C*
    ---------3----------
    ----------3---------
    ------0-------------       como el anterior pero se bajan los dedos indice y medio una cuerda abajo
    --------------------       0-3-2-0-3-3
    ---3----------------
    --------------------
    
    Em*
    ---------3----------
    
  • +
    ¡Colabora con nosotros!
    Envíanos tu versión de esta canción

El 28 Lyrics
Llega tarde el 28 y
nerviosa miro el reloj,
la lluvia conmigo empieza
un día de pleno sol,
uh, uh, uh, uh, uh, uh
a lo lejos aparece el
recuerdo de un amor,
no me ve, camina ausente,
hace mucho que pasó.
Empecé a recordar.
ESTRIBILLO
Y paseé por mi mente
y encontré,aquel rincón
que te dejé,donde guardo los
momentos que no olvidé.
Revivo aquella noche en que
olvidamos lo demás,
el cielo se volvió rojo al sol
vimos bostezar,
uh, uh, uh, uh, uh, uh
se ha perdido entre la gente,
me he perdido yo también,
ya se ha ido el 28
la memoria de un ayer.
Empecé a recordar.
ESTRIBILLO
Si quiero saber, si tú también,
recuerdas algo de aquel café
espero a veces sin entender,
por qué.
ESTRIBILLO
Acordes:




[El 28 acordes][El 28 cifra]
© LaCuerda.net · legal notice · privacy · es · en · pt · contact us
DINAMICO