Guitar Chords » N »Nacho Vegas » Por culpa de la humedad (Tab)

Por culpa de la humedad
Nacho Vegas

Lyrics, Chords & Tabs for Guitar, Bass & Ukulele

  • Es sencilla la tab y se repite en toda la canción
    
    La parte [1] es así:
    
    E-----------------------------------------
    B-----3-------3---5-----------------------
    G-------0------0---0-0--------------------
    D-4h5---5--4----4---4---------------------
    A-----------------------------------------
    E-----------------------------------------
    
    
    La parte [2] es así:
    
    E-----------------------------------------
    B---1-------3---5-------------------------
    G----0-------0---0-0----------------------
    D-2---2--3s4--4---4-----------------------
    A-----------------------------------------
    E-----------------------------------------
    
    
    En si es la misma posicion de dedos pero se recorre al primer traste
    
    Y la canción es así:
    
    [1]
    Cuando el juez le preguntó
    por qué tuvo que matar,
    Mona, seria, respondió:
    [2]            [1]
    "Fue el calor y la humedad."
    
    [1]
    Me contaron que esperó
    a la siesta de las tres.
    En una mano un cenicero;
    en un puño el corazón.
    [2]                   [1]
    Como una fruta madura su cr
  • +
    ¡Colabora con nosotros!
    Envíanos tu versión de esta canción






[Por culpa de la humedad acordes][Por culpa de la humedad cifra]
© LaCuerda.net · legal notice · privacy · es · en · pt · contact us
DINAMICO