Guitar Chords » M »Música Religiosa » Vienen con alegría (Tab)

Vienen con alegría
Música Religiosa

Lyrics, Chords & Tabs for Guitar, Bass & Ukulele

  • D                  
    VIENEN CON ALEGRÍA, SEÑOR,
                                  L         D
    CANTANDO VIENEN CON ALEGRIA, SEÑOR,
    G                              D      
    LOS QUE CAMINAN POR LA VIDA, SEÑOR, 
    L                           D
    SEMBRANDO TU PAZ Y AMOR.
    
    D                        L
    Vienen trayendo la esperanza
                               D
    a un mundo cargado de ansiedad,
                                  L
    un mundo que busca y que no alcanza
                            D
    caminos de amor y de amistad.
    
    D                        L
    Vienen trayendo entre sus manos
    
  •    D                                             A7     D
    E----------------------------------------------------------
    B---------------7-7------------------------------7-7-------
    G-7--7-----7--9-----9--7---7-7-7-7--7-7-----7--9-----9--7--
    D-------7--------------------------------7-----------------
    A----------------------------------------------------------
    E----------------------------------------------------------
      Vienen con alegria señor cantando Vienen con alegria señor
    
        G                   D      Bm        Em       A7   D D7
    E----------------------------------------------------------
    B-12-12-12-12-10----12-10-10----------------------------10-
    G----------------12----------12-11-----11-9-9--11-12-11----
    D----------------------------------------------------------
    A----------------------------------------------------------
    E----------------------------------------------------------
     Los que caminan por la vida señor  Sembrando tu paz y amor
       G                    D       Bm       Em       A7  D  
    E----------------------------------------------------------
    B-12-12-12-12-10----12-10-10--------------10-10------------
    
  • +
    ¡Colabora con nosotros!
    Envíanos tu versión de esta canción

Vienen con alegría Lyrics
VIENEN CON ALEGRÍA, SEÑOR,
CANTANDO VIENEN CON ALEGRIA, SEÑOR,
LOS QUE CAMINAN POR LA VIDA, SEÑOR,
SEMBRANDO TU PAZ Y AMOR.
Vienen trayendo la esperanza
a un mundo cargado de ansiedad,
L
un mundo que busca y que no alcanza
caminos de amor y de amistad.
Vienen trayendo entre sus manos
esfuerzos de hermanos por la paz,
L
deseos de un mundo más humano
que nacen del bien y la verdad.
Cuando el odio y la violencia
aniden en nuestro corazón,
L
el mundo sabrá que por herencia
le aguardan tristezas y dolor.




[Vienen con alegría acordes][Vienen con alegría cifra]
© LaCuerda.net · legal notice · privacy · es · en · pt · contact us
DINAMICO