Guitar Chords » M »Música Religiosa » Padre nuestro (Tab)

Padre nuestro
Música Religiosa

Lyrics, Chords & Tabs for Guitar, Bass & Ukulele

  • A
    Padre Nuestro,
                     F#m
    que estas en el cielo
           Bm
    santificado,
             E
    sea tu nombre.
    A
    Venganos,(venganos)
              F#m
    venga tu reino(venga tu reino)
        Bm   D
    y hagase,
           E
    tu voluntad.
                A
    Asi en la tierra,
                F#m
    como en el cielo
    
  •          C
      Padre nuestro
                       Am
      que estas en el cielo
              F
      santificado 
              G
      sea tu nombre
            C
      venganos (venganos)
                 Am      
      venga tu reino (venga tu reino)
           F
      hagase(hagase)
               G
      tu voluntad
                  C
      asi en la tierra
                   Am
      como en el cielo
    
  • INTRO: LAm
    
    LAm                   SOL
    Padrenuestro Tú que estas
                          LAm  DO
    en los que aman la verdad.
                             FA    DO
    Haz que el reino que por Ti se dio,
                            FA  DO
    llegue pronto a nuestro corazón
          FA                    DO
    y el amor que tu Hijo nos dejo,
        LAm          SOL   LAm
    el amor, este ya con nosotros.
    
                         SOL
    Y en el pan de la unidad,
                       LAm DO
    Cristo danos Tú la paz
                  SOL     DO
    
  •   Em                D                 Em             C        G
    
    e--0----------------2------------------0----------------------------
    B--0----------0-0---3------------------0-------0-0--3-3-3s5-5-3-----
    G--0------0-0-------2-------------2-2--0---0-0----------------------
    D--2--2-2-----------0---0-0--4-4-------2----------------------------
    A--2-----------------------------------2----------------------------
    E--0-----------------------------------0----------------------------
    
    Riff 2        C        G      C                   G       D
    e-------------------------------------------------------------------
    B-------0-0--3-3-3s5-5-3------5-5-7-8-8-8-7-5-3-5-3-0-----3---------
    G--0-0--------------------0-0-------------------------0-0----------
    D------------------------------------------------------------------
    A-------------------------------------------------------------------
    E-------------------------------------------------------------------
    
             Em
    e--------0--------
    B--------0--------
    
  • e|-------------------|-------------------|--------------------------|
    b|-------------------|-------------------|-------------1-1--3---1---|
    g|----------2-2--0---|------------0-0----|---------2-2--------------|
    d|-0-0--3-3----------|--------2-2------3-|-3--3-3-------------------|
    a|-------------------|-3--3-3------------|--------------------------|
    e|-------------------|-------------------|--------------------------|
    
    /
    e|-----------------------|------------0-1-2-2-1-0--------------|
    b|----------1-1--3---1---|------3-3---------------3-1--3-1-----|
    g|------2-2--------------|---------------------------------2---|
    d|-3-3-------------------|-3-3---------------------------------|
    a|-----------------------|-------------------------------------|
    e|-----------------------|-------------------------------------|
    
    /
    e|------------------|-------------------|-----------------|
    b|-------1----------|-------------------|-----------------|
    g|------------------|-----------2-2-0---|---------0-0-----|
    d|-3-3-3----2-3-0---|-0-0-0-3-3---------|-----0-0-----3---|
    
  •   A
    e|----------0-------|----------0-------|----------0-------|-0----------------|
    B|-------------2----|-------------2----|-------------2----|-2----------------|
    G|-------2--------2-|-------2--------2-|-------2--------2-|-2----------------|
    D|----2-------------|----2-------------|----2-------------|-2----------------|
    A|-2----------------|-2----------------|-2----------------|-0----------------|
    E|------------------|------------------|------------------|------------------|
    
    
    Padre Nuestro...
    
      A                                F#m
    e|------------------|------------------|----------2-------|-4--------2-------|
    B|----------5-------|----------5-------|-------------2----|----2--------2----|
    G|-------------6----|-------------6----|-------2--------2-|-------2--------2-|
    D|-------7--------7-|-------7--------7-|----4-------------|------------------|
    A|----7-------------|----7-------------|------------------|------------------|
    E|-5----------------|-5---------------5|-2----------------|-2----------------|
    
    
    
  • +
    ¡Colabora con nosotros!
    Envíanos tu versión de esta canción
  • Tutorial
    HD
    CANTO PARA MISA - Padre Nuestro con Guitarra - Acordes y letra
    2:06

Padre nuestro Lyrics
Padre Nuestro,
que estas en el cielo
santificado,
sea tu nombre.
Venganos,(venganos)
venga tu reino(venga tu reino)
y hagase,
tu voluntad.
Asi en la tierra,
como en el cielo
danos hoy nuestro pan,
de cada dia.
Y perdona,
nuestras ofensas
como nosotros,
perdonamos.
A los,(a los)
que nos ofenden(que nos ofenden)
no nos dejes caer,
en la tentacion.
Padre Nuestro,
Padre Nuestro,
libranos,
de todo mal.
(Si desean pueden añadir al final despues de A, F#m, Bm, E y cierran con A).
Espero les haya servido.




[Padre nuestro acordes][Padre nuestro cifra]
© LaCuerda.net · legal notice · privacy · es · en · pt · contact us
DINAMICO